Oops, an error
Loading. Please wait.

Guns For Hire Tab

version 2
version 2

Whole song

Interactive

6,812 views 6 this week
4 commentsread comments
1 2 3 4 5
excellent!
x 8
add to favorites
launch autoscroll
font size
0
reset
how to read this tab
guitar tuner
Tab Pro tools
  • play this tab
  • loop segment
  • change instrument
  • show fretboard
  • metronome
×
Best way to learn
"Guns For Hire"
Autoscroll
slow
fast
+/-
esc
set tempo
stop
Contributor
Difficulty
intermediate
GUNS FOR HIRE

INTRO                                                                                  repeat
E|-------------------------------------------------------------| |---------------------------||
B|-------------------------------------------------------------| |---------------------------||
G|-------------------------------------------------------------| |---------------------------||
D|---0^2-2------0^2-2-2----0^2-2-2--0^2-2-2--0^2-2-2--0^2-2-2--| |-2~2~2~2~2~2~2~2~2~2~2~2~2-||
A|-------------------------------------------------------------| |---------------------------||
E|-------------------------------------------------------------| |---------------------------||
 
CHORUS/INTRO CHORDS      do a slow pick slide over the top of this, continuing the intro over it
    guitar 1
|-----------------------|---------------------|
|-----------------------|---------------------|
|-----------------------|---------------------|
|--7--9------7----7--2--|----4----------------|
|--5--7------5----4--0--|----2------5----5----|
|-----------------------|-----------3----2----|
    guitar 2                                        >repeat    last time do this
|-----------------------|---------------------|         |--------------------------|
|--3---------3----------|-----------3----3----|         |----------------3---3-----|
|--2---------2-------2--|----4------0----2----|         |--------4-------0---2-----|
|--0--2------0-------2--|----4------0----0----|         |--------4-------0---0-----|
|-----2-----------4--0--|----2----------------|         |---0-2--2---0-------------|
|-----0-----------------|-----------3----2----|         |----------------3---2-----|



RIFF
E||-------------|---------------------|-------------------|-----------------------|
B||-------------|--3----------3--3----|-------------------|--3--3----3----3-------|
G||---2---------|--2----------0--2----|--2----------------|--0--2----0----2-------|
D||---2---------|--0----------0--0----|--2----------------|--0--0----0----0----2--|
A||---0---------|--0-------------0----|--0----------------|-----0---------0----0--|
E||-------------|-------------3-------|-------------------|--3-------3------------| repeat



Bit Before Solo
E|-------------------------------------------------------------|
B|-----------------(12-14-14~~~~~)-----------------------------|
G|---0----2---------0---2--2---------0----2-------0-----2--2---|
D|---0----2---------0---2--2---------0----2-------0-----2--2---|
A|--------0-------------0--0--------------0-------------0--0---|
E|---3--------------3----------------3------------3------------|

SOLO
E|---------------------------------------12--------12-12---------------------------15^12-12-12-|
B|--------8-8\----------9-9b--------12-15----12-15-------15^12-------------------------------12|
G|-----/7------------7--9-9b--11~~---------------------------------------------12--------------|
D|--------------------------------------------------------------16^14-14----14-----------------|
A|--------------9^7----------------------------------------------------------------------------|
E|---------------------------------------------------------------------------------------------|

E|-12-15^12-15^12-15^12--12-12b-12~~----12\---/15-17b-17b~\-12-15-12---12----------------------|
B|-12-15^12-15^12-15^12--------------15------------------------------15---15-12-------12-15-12-|
G|------------------------------------------------------------------------------14-14----------|
D|---------------------------------------------------------------------------------------------|
A|---------------------------------------------------------------------------------------------|
E|---------------------------------------------------------------------------------------------|

E|---------------------------------------------------------------------------------------------|
B|---------------------------------------------------------------------------------------------|
G|-14-12----12-14-12------------------------------<12>---------12-12---------------------------|
D|-------14----------14-12------------------/12-14------/12-14-------14--12-12b~~~~\-----------|
A|-------------------------12-14~~--\----------------------------------------------------------|
E|---------------------------------------------------------------------------------------------|

E|---------------------------------------------------------------------------------------------|
B|---------------------------------------------------------------------------------------------|
G|---------------------------------------------------------------------------------------------|
D|-12^14^12^14^12^14^12^14^12^15^12^15^12^15^12^15^12^16^12^16^12^16^12^17^12^17^12^17^12^17---|
A|---------------------------------------------------------------------------------------------|
E|---------------------------------------------------------------------------------------------|

E|----------------------------------------------------------15-17---12-15-12---12-15-12----12--|
B|-12b--12-12--12-12\--15/17b~~-15-17b-15-17b--15-17b-r-^15-----------------15----------15-----|
G|---------------------------------------------------------------------------------------------|
D|---------------------------------------------------------------------------------------------|
A|---------------------------------------------------------------------------------------------|
E|---------------------------------------------------------------------------------------------|

E|-----15-12--------------------------||
B|--12-------15-12----12-----/17~~\---||
G|-----------------14----14-----------||
D|------------------------------------||
A|------------------------------------||
E|------------------------------------||


end solo (over the intro pattern)
E|------------------------------------------------------------------8---------------8----------|
B|--------------------------------------8-10---8-10---8-10---8-9-10---10-8---8-9-10---10-8-----|
G|-------------------9-9-9-9-9-9-9-9-9-9-----8------9------9---------------9---------------9---|
D|---------------------------------------------------------------------------------------------|
A|--7-7-7-7-7-7-7-7-7--------------------------------------------------------------------------|
E|---------------------------------------------------------------------------------------------|

E|---------------------------------------------------------------------------------------------|
B|----------------------/15b(17)(17)(17)(17)--------------------------------------------12~~---|
G|--7-9-7----------------------------------------------------------------9b-7---9~~~~----------|
D|--------9-----------------------------------7^9~~~--7^9~~~~~-7^9~~~~--------9----------------|
A|-----------7-7-7-7-7-7-----------------------------------------------------------------------|
E|---------------------------------------------------------------------------------------------|

E|-----12--------------------------------------||
B|--10----12~~15~~~~~~~~~~~--------------------||
G|-----------------x\--------------------------||
D|-----------------x\---------------------2----||
A|-----------------x\-pick-scrape---------2----||
E|----------------------------------------0----||
comments
print report bad tab
4 comments total. Showing first comments.
+1 reply
Voytazz wrote on March 28 2006, 01:46 pm

looks like a good tab

+1 reply
Voytazz wrote on April 27 2006, 03:38 pm

I LIKE IT....

+1 reply
playinbass1432 wrote on March 29 2008, 07:46 pm

good!

I want to post or [tab]
guest
You may want to rate the tab now too:
select rating
Please do not post tabs as comments. Select "correction" instead!