Oops, an error
Loading. Please wait.

Hard As A Rock Bass

version 2
version 2

Whole song

Interactive

5,067 views 9 this week
3 commentsread comments
1 2 3 4 5
x 11
add to favorites
launch autoscroll
font size
0
reset
guitar tuner
backing track
0:00
0:00
×
Best way to learn
"Hard As A Rock"
Autoscroll
slow
fast
+/-
esc
set tempo
stop
AC/DC-Hard as a Rock
Ballbreaker (1995) 
Transcribed by: playinbass1432
Email: playinbass1432@hotmail.com

Standard Tuning

Intro:
    
       B
G|-----------------|-----------------|-----------------|-----------------|
D|-----------------|-----------------|-----------------|-----------------|
A|-----------------|-----------------|-----------------|-----------------|
E|-----7-7-7-7-7-7-|-7-7-7-7-7-7-7-7-|-7-7-7-7-7-7-7-7-|-7-7-7-7-7-7-7-7-|

   B
G|-----------------|-----------------|-----------------|-----------------|
D|-----------------|-----------------|-----------------|-----------------|
A|-----------------|-----------------|-----------------|-----------------|
E|-7-7-7-7-7-7-7-7-|-7-7-7-7-7-7-7-7-|-7-7-7-7-7-7-7-7-|-7-7-7-7-7-7-7-7-|

   B
G|-----------------|-----------------|-----------------|-----------------|
D|-----------------|-----------------|-----------------|-----------------|
A|-----------------|-----------------|-----------------|-----------------|
E|-7-7-7-7-7-7-7-7-|-7-7-7-7-7-7-7-7-|-7-7-7-7-7-7-7-7-|-7-7-7-7-7-7-7-7-|

   B
G|-----------------|-----------------|-----------------|-----------------|
D|-----------------|-----------------|-----------------|-----------------|
A|-----------------|-----------------|-----------------|-----------------|
E|-7-7-7-7-7-7-7-7-|-7-7-7-7-7-7-7-7-|-7-7-7-7-7-7-7-7-|-7-7-7-7-7-7-7-7-|

Pre Verse 1:

   B
G|-----------------|-----------------|-----------------|-----------------|
D|-----------------|-----------------|-----------------|-----------------|
A|-----------------|-----------------|-----------------|-----------------|
E|-7-7-7-7-7-7-7-7-|-7-7-7-7-7-7-7-7-|-7-7-7-7-7-7-7-7-|-7-7-7-7-7-7-7-7-|

Verse 1:

   B
G|-----------------|-----------------|-----------------|-----------------|
D|-----------------|-----------------|-----------------|-----------------|
A|-----------------|-----------------|-----------------|-----------------|
E|-7-7-7-7-7-7-7-7-|-7-7-7-7-7-7-7-7-|-7-7-7-7-7-7-7-7-|-7-7-7-7-7-7-7-7-|

   B
G|-----------------|-----------------|-----------------|-----------------|
D|-----------------|-----------------|-----------------|-----------------|
A|-----------------|-----------------|-----------------|-----------------|
E|-7-7-7-7-7-7-7-7-|-7-7-7-7-7-7-7-7-|-7-7-7-7-7-7-7-7-|-7-7-7-7-7-7-7-7-|

   B
G|-----------------|-----------------|-----------------|-----------------|
D|-----------------|-----------------|-----------------|-----------------|
A|-----------------|-----------------|-----------------|-----------------|
E|-7-7-7-7-7-7-7-7-|-7-7-7-7-7-7-7-7-|-7-7-7-7-7-7-7-7-|-7-7-7-7-7-7-7-7-|

   B
G|-----------------|-----------------|-----------------|
D|-----------------|-----------------|-----------------|
A|-----------------|-----------------|-----------------|
E|-7-7-7-7-7-7-7-7-|-7-7-7-7-7-7-7-7-|-7-7-7-7-7-7-7-7-|
 
   E      A    E      E
G|-----------------|-----------------|
D|-----------------|-----------------|
A|-----------------|-----------------|
E|-0-----5-----0---|-12\\\-----------|

Chorus 1:

   B       E     B                 E                 B              
G|-----------------|-----------------|-----------------|-----------------|
D|-----------------|-----------------|-----------------|-----------------|
A|-----------------|-----------------|-----------------|-----------------|
E|-7-7-7-7-0-0-0-7-|-7-7-7-7-7-7-7-0-|-0-0-0-0-0-0-0-7-|-7-7-7-7-7-7-7-7-|

   B       E     B                 E                 B              
G|-----------------|-----------------|-----------------|-----------------|
D|-----------------|-----------------|-----------------|-----------------|
A|-----------------|-----------------|-----------------|-----------------|
E|-7-7-7-7-0-0-0-7-|-7-7-7-7-7-7-7-0-|-0-0-0-0-0-0-0-7-|-7-7-7-7-7-7-7-7-|

Pre Verse 2:

   B
G|-----------------|-----------------|-----------------|-----------------|
D|-----------------|-----------------|-----------------|-----------------|
A|-----------------|-----------------|-----------------|-----------------|
E|-7-7-7-7-7-7-7-7-|-7-7-7-7-7-7-7-7-|-7-7-7-7-7-7-7-7-|-7-7-7-7-7-7-7-7-|

Verse 2:

   B
G|-----------------|-----------------|-----------------|-----------------|
D|-----------------|-----------------|-----------------|-----------------|
A|-----------------|-----------------|-----------------|-----------------|
E|-7-7-7-7-7-7-7-7-|-7-7-7-7-7-7-7-7-|-7-7-7-7-7-7-7-7-|-7-7-7-7-7-7-7-7-|

   B
G|-----------------|-----------------|-----------------|-----------------|
D|-----------------|-----------------|-----------------|-----------------|
A|-----------------|-----------------|-----------------|-----------------|
E|-7-7-7-7-7-7-7-7-|-7-7-7-7-7-7-7-7-|-7-7-7-7-7-7-7-7-|-7-7-7-7-7-7-7-7-|

   B
G|-----------------|-----------------|-----------------|-----------------|
D|-----------------|-----------------|-----------------|-----------------|
A|-----------------|-----------------|-----------------|-----------------|
E|-7-7-7-7-7-7-7-0-|-0-0-0-0-0-0-0-0-|-7-7-7-7-7-7-7-0-|-0-0-0-0-0-0-0-0-|

   B
G|-----------------|-----------------|-----------------|
D|-----------------|-----------------|-----------------|
A|-----------------|-----------------|-----------------|
E|-7-7-7-7-7-7-7-0-|-0-0-0-0-0-0-0-0-|-5---0-7-7-7-7-7-|
 
   E      A    E      E
G|-----------------|-----------------|
D|-----------------|-----------------|
A|-----------------|-----------------|
E|-0-----5-----0---|-12\\\-----------|

Chorus 2:

   B       E     B                 E                 B              
G|-----------------|-----------------|-----------------|-----------------|
D|-----------------|-----------------|-----------------|-----------------|
A|-----------------|-----------------|-----------------|-----------------|
E|-7-7-7-7-0-0-0-7-|-7-7-7-7-7-7-7-0-|-0-0-0-0-0-0-0-7-|-7-7-7-7-7-7-7-7-|

   B       E     B                 E                 B              
G|-----------------|-----------------|-----------------|-----------------|
D|-----------------|-----------------|-----------------|-----------------|
A|-----------------|-----------------|-----------------|-----------------|
E|-7-7-7-7-0-0-0-7-|-7-7-7-7-7-7-7-0-|-0-0-0-0-0-0-0-7-|-7-7-7-7-7-7-7-7-|

Bridge:

   B
G|-----------------|-----------------|-----------------|-----------------|
D|-----------------|-----------------|-----------------|-----------------|
A|-----------------|-----------------|-----------------|-----------------|
E|-7-7-7-7-7-7-7-7-|-7-7-7-7-7-7-7-7-|-7-7-7-7-7-7-7-7-|-7-7-7-7-7-7-7-7-|

   B
G|-----------------|-----------------|-----------------|-----------------|
D|-----------------|-----------------|-----------------|-----------------|
A|-----------------|-----------------|-----------------|-----------------|
E|-7-7-7-7-7-7-7-7-|-7-7-7-7-7-7-7-7-|-7-7-7-7-7-7-7-7-|-7-7-7-7-7-7-7-7-|

Pre Solo:

   A   E B                             A   E B       E                
G|-----------------|-----------------|-----------------|-----------------|
D|-----------------|-----------------|-----------------|-----------------|
A|-----------------|-----------------|-----------------|-----------------|
E|-5---0-7---------|-----------------|-5---0-7-------0-|---0-0-0-0-0-0-0-|

Guitar Solo: 

   A   E B                             A   E B       E                
G|-----------------|-----------------|-----------------|-----------------|
D|-----------------|-----------------|-----------------|-----------------|
A|-----------------|-----------5-6---|-----------------|-----------------|
E|-5---0-7-7-7-7-0-|-0-0-0-0-0-----0-|-5---0-7-7-7-7-0-|-0-0-0-0-0-0-0-0-|

   A   E B       E
G|-----------------|-----------------|-----------------|-----------------|
D|-----------------|-----------------|-----------------|-----------------|
A|-----------------|-----------------|-----------------|-----------------|
E|-5---0-7-7-7-7-0-|-0-0-0-0-0-0-0-0-|-0-0-0-0-0-0-0-0-|-0-0-0-0-0-0-5-6-|

   B           E
G|-----------------|-----------------|
D|-----------------|-----------------|
A|-----------------|-----------------|
E|-7-7-7-7-7-7-0---|-----------------|

Bridge:

   B
G|-----------------|-----------------|-----------------|-----------------|
D|-----------------|-----------------|-----------------|-----------------|
A|-----------------|-----------------|-----------------|-----------------|
E|-7-7-7-7-7-7-7-7-|-7-7-7-7-7-7-7-7-|-7-7-7-7-7-7-7-7-|-7-7-7-7-7-7-7-7-|

   B
G|-----------------|-----------------|-----------------|-----------------|
D|-----------------|-----------------|-----------------|-----------------|
A|-----------------|-----------------|-----------------|-----------------|
E|-7-7-7-7-7-7-7-7-|-7-7-7-7-7-7-7-7-|-7-7-7-7-7-7-7-7-|-7-7-7-7-7-7-7-7-|


Outro Chorus:

   B       E     B                 E                 B              
G|-----------------|-----------------|-----------------|-----------------|
D|-----------------|-----------------|-----------------|-----------------|
A|-----------------|-----------------|-----------------|-----------------|
E|-7-7-7-7-0-0-0-7-|-7-7-7-7-7-7-7-0-|-0-0-0-0-0-0-0-7-|-7-7-7-7-7-7-7-7-|

   B       E     B                 E                 B              
G|-----------------|-----------------|-----------------|-----------------|
D|-----------------|-----------------|-----------------|-------------7-8-|
A|-----------------|-----------------|-----------------|-----------------|
E|-7-7-7-7-0-0-0-7-|-7-7-7-7-7-7-7-0-|-0-0-0-0-0-0-0-7-|-7-7-7-7-7-7-----|

   B       E     B                 E                 B              
G|-----------------|-----------------|-----------------|-----------------|
D|-----------------|-----------------|-----------------|-----------------|
A|-----------------|-----------------|-----------------|-----------------|
E|-7-7-7-7-0-0-0-7-|-7-7-7-7-7-7-7-0-|-0-0-0-0-0-0-0-7-|-7-7-7-7-7-7-7-7-|

   B       E     B                 E                               
G|-----------------|-----------------|-----------------|-----------------|
D|-----------------|-----------------|-----------------|-----------------|
A|-----------------|-----------------|-----------------|-----------5-6-7-|
E|-7-7-7-7-0-0-0-7-|-7-7-7-7-7-7-7-0-|-0-0-0-0-0-0-0-0-|-0-0-0-0-0-------|

   E                                   B
G|-----------------|-----------------|-----------------|-----------------|
D|-----------------|-----------------|-----------------|-----------------|
A|-7-7-7-7-7-7-7-7-|-7-7-7-7-7-7-7-7-|-----------------|-----------------|
E|-----------------|-----------------|-7---------------|-----------------|

   E                                   B
G|-----------------|-----------------|-----------------|-----------------|
D|-----------------|-----------------|-----------------|-----------------|
A|-----------------|-----------------|-----------------|-----------------|
E|-0---------------|-----------------|-7---------------|---------------7-|
Suggest correction
comments
print report bad tab
3 comments total.
0 reply
Anden 10 May 05, 2006 06:47 AM

He starts the slide when Brian sing Hard as a rock

Thanks This Tab is good!! 5 pts

0 reply
playinbass1432 1,442 Mar 23, 2008 09:03 PM

How the hell does this have 5 stars? It's like two parts of the song!

0 reply
Dback139 306 Aug 12, 2009 03:48 PM

There is a ton missing from this song.

guest
You may want to rate the tab now too:
select rating
Wanna post a correction for this tab? Suggest correction