Oops, an error
Loading. Please wait.
We have an official Hells Bells tab made by UG professional guitarists. Check out the tab »
×
by AC/DC
196,020 views 111 this week
39 commentsread comments
1 2 3 4 5
x 82
add to favorites
×
Save as Personal and add changes to this tab that will be seen only by you. Learn more ›
×
You can save this tab as Personal to edit and correct it or add notes. All changes will be seen only by you. Learn more »
launch autoscroll
font size
0
reset
how to read this tab
guitar tuner
edit
Autoscroll
slow
fast
+/-
esc
set tempo
stop
Author
Unregistered
A lot of people get this tab wrong. This is the actual version. Hope it works
for you. Standard Tuning.


[Intro]

e|--------------------------------------------------------------------|
B|--------------------------------------------------------------------|
G|-----9-----7--------5-----7-----------9-----7--------5--------7-----|
D|--------7-----7--------5-----7-----------7-----7--------5-----------|
A|--0--------------0--------0-----0-00--------------0--------0--------|
E|--------------------------------------------------------------------|

e|------------------------------------------|
B|------------------------------------------|
G|--------2---------------------------------|
D|--5--5--2---------------------------------|
A|--3--2--0---------------------------------|
E|------------------------------------------|(x5)

 last part of intro - Played once
e|------------------------|------------------------|
B|------------------------|------------------------|
G|----9-----7----------5--|----------7-------------|
D|-------7-------7--------|----5----------7--------|
A|------------------0-----|-------0----------0--0--|
E|------------------------|------------------------|

e|---------------------3--|----3--2---------------|
B|---------------------3--|----3--3---------------|
G|----9-----7----------0--|----0--2---------------|
D|-------7-------7-----0--|----0--0----5--5--2----|
A|------------------0--2--|----2--0----3--2--0----|
E|---------------------3--|----3------------------|


[Verse]

e|------------------------|---------------------|
B|------------------------|---------------------|
G|----9--7--9----7--5--7--|---------------------|
D|----7--7--7----5--5--7--|-----------5----5----|
A|------------------------|--------0--3----2----|
E|------------------------|---------------------|

e|-------------------------|---------------------|
B|-------------------------|---------------------|
G|-----9--7--9----7--5--7--|---------------------|
D|-----7--7--7----5--5--7--|-----------5----5----|
A|--0----------------------|--------0--3----2----|
E|-------------------------|---------------------|

            
            
Suggest correction
Creating personal tab
Creating personal tab
You can edit any tab online and save it as your Personal.

You can edit, replace or remove any tab part or add personal notes – all changes will be seen only by you.

Personal tabs can be accessed anytime from any device, even offline.
Learn more »
comments
print report bad tab
39 comments total. Showing first comments.
+1 reply
slick10484 0 Oct 21, 2002 08:00 PM

you got this one right on! nice work!

0 reply
mojo_mattv 10 Jan 13, 2003 07:00 PM

sweet tab man! But if u want it a little easier at the end of the intro with the power cords just play it as 230 on the A string
other than that sweet!

+2 reply
seether1973 10 Dec 29, 2003 07:00 PM

Wow, that's amazing for your first ever tab and it's exactly as it is printed in the January 2004 edition of Guitar World page 50. Wow, right on!

guest
Wanna post a correction for this tab? Suggest correction