Oops, an error
Loading. Please wait.

Hells Bells Tab

version 1
version 1
690,037 views 558 this week
69 commentsread comments
1 2 3 4 5
accurate
x 156
add to favorites
launch autoscroll
font size
0
reset
how to read this tab
guitar tuner
Tab Pro tools
  • play this tab
  • loop segment
  • change instrument
  • show fretboard
  • metronome
×
Best way to learn
"Hells Bells"
Autoscroll
slow
fast
+/-
esc
set tempo
stop
[Intro]

Pattern 1 

  Am    Asus4   Am7      Asus4    Am        Asus4  Am7    A7sus4 C5  G/B Am
e|--0--------------|-----------------|--0--------------|----------------------|
b|-------3-------1-|------3----------|-------3-------1-|------3---------------|
g|----------2------|--0-------2------|-----------2-----|--0-------------------| x5
D|-----------------|-----------------|-----------------|---------5---5--------|
A|0---0--------0---|----0--------0-0-|-----0-------0---|----0----3---2---0----|
E|-----------------|-----------------|-----------------|----------------------|

Pattern 2

       Asus4   Am7        Asus4     Am       Asus4     G     D   C5  G/B Am
e|0----------------|-------------------|-0-------------3-|-3--2---------------|
b|-----3-------1---|-------3-----------|-----3---------3-|-3--3---------------|
g|--------2--------|--0--------2-------|---2-----2-----0-|-0--2---------------|
D|-----------------|-------------------|---------------0-|-0--0---5---5-------|
A|--0--------0-----|----0---------0--0-|------------0--2-|-2--0---3---2---0---|
E|-----------------|-------------------|---------------3-|-3------------------|

                   D5/A~~~~~  Cadd9 G/B   A5                 D5/A   Cadd9 G/B
e|-------------------|-----------------|-----------------------|--------------|
b|-------------------|---------3----3--|-----------------------|-----3---3----|
g|-9--7--9---7--5--7-|---------0----0--|-----9--7--9---7--5--7-|-----0---0----|
D|-7--7--7---5--5--7-|-----------------|-----7--7--7---5--5--7-|--------------|
A|-----------------0-|------0--3----2--|--0--------------------|--0--3---2----|
E|-------------------|-----------------|-----------------------|--------------|


[Verse]

A5 D5/A Cadd9 G/B A5 D5/A Cadd9 G/B 

  I won`t take no Prisoners... (Pattern 3)
    D5                            C5  G5   D5                          C5 G
e|------------------------------------3-----------------------------------3---|
b|---3--3--3---3--3--3---3--3--3------3------3--3--3---3--3--3-3-3-3-3----3---|
g|---2--0--2---2--0--2---2--2--2--5---0------2--0--2---2--0--2-2-2-2-2-5--0---|
D|-0------------------------------5---0---0----------------------------5--0---|
A|--------------------------------3------------------------------------3------|
E|------------------------------------3-----------------------------------3---|


[Pre-Chorus]

E5 D5/A A E5 G5  


[Chorus]

  Am    Asus4   Am7      Asus4    Am        Asus4  Am7    A7sus4 C5  G/B Am
e|--0--------------|-----------------|--0--------------|----------------------|
b|-------3-------1-|------3----------|-------3-------1-|------3---------------|
g|----------2------|--0-------2------|-----------2-----|--0-------------------| 
D|-----------------|-----------------|-----------------|---------5---5--------|
A|0---0--------0---|----0--------0-0-|-----0-------0---|----0----3---2---0----|
E|-----------------|-----------------|-----------------|----------------------|


[Pre-Solo]

                                             b    slowb
e|----------------------------------------5-----------------------------------|
b|--8--7--8--7---7--5---------------------5-7-8--7-----8----------------------|
g|--7--7-------9-7--5-----------------------7-8--7-----8----------------------|
D|---------------------7--5--7------------------------------------------------|
A|---------------------------------------------------------12-----------------|
E|------------------------------------------------------------x---------------|
                                                               x
                                                                x
[Solo 1]

         ~~~~~      ~~~~~                     b          b    |---HB---------|
e|----------------------------------------------------------------------------|
b|--------------------------------------------------8---------8-8-8-8-8-8--8-8|
g|-------------------------------------------7-9-------7--9---9-9-9-9-9-9--9-9|
D|--5-7-7-----4-5-5------0--4-5-7-7--5-7--------------------------------------|
A|----------------------------------------------------------------------------|
E|----------------------------------------------------------------------------|

   r                  ~~~~~~~     ~~~~~~~   ~~~~~~~     ~~~~~
e|---------------------------------------------------------------------------|
b|------------5-------8------7---7-------8--8------10--10-----13-13-12-13-13-|
g|--7--5------5----9--9------7---7-------9--9------11--11-----14-14-13-14-14-|
D|-------7-7------/----------------------------------------------------------|
A|---------------------------------------------------------------------------|
E|---------------------------------------------------------------------------|

                                                     ub    ub
e|----------------------------------------12---12-----10-----10---------------|
b|12-13-13-12-13-12-13-13-13-13-13-13-13--13---13--13-15--13-15---------------|
g|13-14-14-13-14-13-14-14-14-14-14-14-14--------------------------------------|
D|----------------------------------------------------------------------------|
A|----------------------------------------------------------------------------|
E|----------------------------------------------------------------------------|

    ub          r                                                       b
e|---10----------------------10---10---------10----10-------------------------|
b|13-15---12-13---12---10--/-10---10---13-10----10-------13--------15-17-19---|
g|-----------------------\-/-----------------------------14----\14------------|
D|-------------------------------------------------------------\--------------|
A|----------------------------------------------------------------------------|
E|----------------------------------------------------------------------------|

       b         b      b      b    r                         b      b
e|17--------17-----------17-----17----------------------------------------|
b|---17-19-----17-19--17-19--17-19---17---15--17--15----15------------20--|
g|---------------------------------------------------16-----19-21--19-21--|
D|------------------------------------------------------------------------|
A|------------------------------------------------------------------------|
E|------------------------------------------------------------------------|

    b     b                                      b     b                 b
e|--------------17------------------------------------------17--20--17--------|
b|-----------------20-17-----------------------20-22-20-22-------------20-22--|
g|19-21-19-21------------20-19-17----19-17------------------------------------|
D|--------------------------------19-------19---------------------------------|
A|----------------------------------------------------------------------------|
E|----------------------------------------------------------------------------|

                 b      b                                 ~~~~~~~~
e|-17-17-------20-22--20-21-----17--------------------------------------------|
b|-------20-17---------------------20-17--------------------------------------|
g|---------------------------------------19-21-19-17-----17-------------------|
D|---------------------------------------------------19------------19---------|
A|-------------------------------------------------------------------\--------|
E|--------------------------------------------------------------------\-------|


[Solo 2]

     b                                    b                                   b
e|---------15----------------------------------15-----------------------------|
b|-15-17------17--15----13------15-----15--17------17--15------13-----15----15|
g|----------------------------------------------------------------------------|
D|----------------------------------------------------------------------------|
A|----------------------------------------------------------------------------|
E|----------------------------------------------------------------------------|
                                  b
e|---15--------------------------------15-------------------------------------|
b|17----17-15---13-------15-----15-17-----17-15------13-----------------------|
g|----------------------------------------------------------------------------|
D|----------------------------------------------------------------------------|
A|----------------------------------------------------------------------------|
E|-------------------------------------------------------17-----17-----17-----|
                                                           \      \      \
                                                                               
           ~~~~~~  ~~~~~~~~   ~~~~~~~         ub      ub
e|----------------------------------------------5-------5---\----8---------8--|
b|-------------------------------------------8-10---8--10---\\-----10-8-10--10|
g|--2--0--2------2---------5-7---------5---------------------\----------------|
D|--2-----------------------------------\-------------------------------------|
A|--0-------------------------------------------------------------------------|
E|----------------------------------------------------------------------------|

         ub   ub            b               b            b ~~~~~   b       b
e|--------5------5---------------17-------------17----------------------------|
b|\----8-10--8--10---\----20-22-----20-17-20-22----17--20-22-----20-22---20-22|
g|-\--------------------------------------------------------------------------|
D|----------------------------------------------------------------------------|
A|----------------------------------------------------------------------------|
E|----------------------------------------------------------------------------|

     b                b           b        b       b       b       b       b  r
e|----------17----------------------------------------------------------------|
b|-20-22------20-17-------------------20----20------20------20------20------20|
g|------------------19-21-19-17-19-21----19-21---19-21---19-21---19-21---19-21|
D|----------------------------------------------------------------------------|
A|----------------------------------------------------------------------------|
E|----------------------------------------------------------------------------|

e|----------------------------------------------|
b|20-----------19--17---------------------------|
g|19-----17----19--17----------------2-------2--|
D|----------19--------------x--------2-------2--|
A|---------------------------\-------0-------0--|
E|----------------------------\----------3------|



************************************

| x  Dead note
| /  Slide up
| \  Slide down
| b  Bend
| r  Release
| ub Unison Bend
| ~  Vibrato
| \  Slide

************************************
comments
print report bad tab
69 comments total. Showing first comments.
+1 reply
Judge Dredd wrote on February 18 2002, 12:00 am

Done like the book. WELL DONE!

0 reply
PHaTMaTT wrote on February 20 2002, 12:00 am

This song rocks!! moocow, ima drummer.
bass sucks, bass rocks. im super thanks 4 asking

+1 reply
BLINKICKSASS69 wrote on March 21 2002, 12:00 am

ALL I CAN SAY IS GOOD FUCKING JOB!

I want to post or [tab]
guest
You may want to rate the tab now too:
select rating
Please do not post tabs as comments. Select "correction" instead!