Oops, an error
Loading. Please wait.

Hells Bells Tab

version 2
version 2
by AC/DC
24,834 views 30 this week
11 commentsread comments
1 2 3 4 5
x 13
add to favorites
launch autoscroll
font size
0
reset
how to read this tab
guitar tuner
×
Best way to learn
"Hells Bells"
Autoscroll
slow
fast
+/-
esc
set tempo
stop
Hells Bells
Transcribed by: Max Newman
AGe:13
THe pro guitarist


e|---0---------------------|----------------------|
B|----------3------------1-|-------3--------------|
G|--------------2----------|-0----------2---------|
D|-------------------------|----------------------|
A|0---- 0-----------0------|----0-----------0--0--|
E|-------------------------|----------------------|

e|-0-----------------------|----------------------|
B|---------3---------1-----|------3---------------|
G|-------------2-----------|0---------------------|
D|-------------------------|---------5-5----------|
A|----0-----------0--------|---0-----3-2--0-------|
E|-------------------------|----------------------|

e|---0---------------------|----------------------|
B|----------3------------1-|-------3--------------|
G|--------------2----------|-0----------2---------|
D|-------------------------|----------------------|
A|0---- 0-----------0------|----0-----------0--0--|
E|-------------------------|----------------------|

e|0-------------------3----|3--3--2---------------|
B|---------3----------3----|3--3--3---------------|
G|----2---------2-----0----|0--0--2---------------|
D|--------------------0----|0--0--0----5--5-------|
A|-----------------0--2----|2--2--0----3--2--0----|
E|--------------------3----|3--3------------------|

e|-----------------------------------------------|
B|----------------------------3--3---------------|
G|9--7--9----7--5--7----------0--0---------------|
D|7--7--7----5--5--7-----------------------------|
A|-----------------0-------0--3--2---------------|
E|-----------------------------------------------|

e|-----------------------------------------------|
B|----------------------------3--3---------------|
G|9--7--9----7--5--7----------0--0---------------|
D|7--7--7----5--5--7-----------------------------|
A|-------------------------0--3--2---------------|
E|-----------------------------------------------|

e|-----------------------------------------------|
B|----------------------------3--3---------------|
G|9--7--9----7--5--7----------0--0---------------|
D|7--7--7----5--5--7-----------------------------|
A|-----------------0-------0--3--2---------------|
E|-----------------------------------------------|
im a rollen thunder, pouren rain, I'm comen roudn like a hurricane.
|-----------------------------------------------|
|----------------------------3--3---------------|
|9--7--9----7--5--7----------0--0---------------|
|7--7--7----5--5--7-----------------------------|
|-------------------------0--3--2---------------|
|-----------------------------------------------|

My lightnins flashin across the sky, Youre only young but youre gonna die

e|-------------------------|
B|----3---3--3-----3--3--3-|
G|----2---0--2-----2--0--2-|
D|-0-----------------------|
A|-------------------------|
E|-------------------------|
wont take no prisoners,     won't spare no lives


Well im too lazy to finish the tab but the rest of the song is pretty much just what i 
wrote except it isnt al in that exact order,but ull get it quick.

That was my first tab... i know its right casue my teacher joe cefeuli taught me it.
Suggest correction
comments
print report bad tab
11 comments total. Showing first comments.
0 reply
Axegrinder 10 Mar 31, 2002 07:00 PM

There is a much easier way to play the song.......the way Angus plays it.

0 reply
jobojoe 0 Apr 02, 2002 07:00 PM

great tab!

0 reply
jobojoe 0 Apr 02, 2002 07:00 PM

you did a gerat job!,lol,perfect

guest
You may want to rate the tab now too:
select rating
Wanna post a correction for this tab? Suggest correction