Oops, an error
Loading. Please wait.

Hells Bells Tab

version 3
version 3
1,219,646 views 2,793 this week
161 commentsread comments
1 2 3 4 5
excellent!
x 417
add to favorites
launch autoscroll
font size
0
reset
how to read this tab
guitar tuner
Tab Pro tools
  • play this tab
  • loop segment
  • change instrument
  • show fretboard
  • metronome
×
Best way to learn
"Hells Bells"
Autoscroll
slow
fast
+/-
esc
set tempo
stop
Contributor
[Intro]

e|---------------------------------------------------------|
B|---------------------------------------------------------|
G|---9---7------5-----7-------9---7------5-------7---------|x6
D|-----7----7-----5-----7-------7----7------5--------5-5---|
A|-0----------0-----0-----0-0----------0------0------3-2-0-|
E|---------------------------------------------------------|

e|-----------------------------------------------|
B|-----------------------------------------------|
G|-----------------------------------------------|
D|-7-9-7---5-7-5-----5-5---7-9-7---5-7-5-----5-5-|
A|-7-7-7---5-5-5---0-3-2---7-7-7---5-5-5---0-3-2-|
E|-----------------------------------------------|

e|-------------------------------|
B|-------------------------------|
G|-----------2-0-2---------------|x4
D|-0-2-0-2---0-0-0--0-0-0----5-5-|
A|-0-0-0-0-----------------0-3-2-|
E|-------------------------------|


[Verse]

                    PM---|
e|-------------------------------|
B|-------------------------------|
G|-----------2-0-2---------------|x4
D|-0-2-0-2---0-0-0--0-0-0----5-5-|
A|-0-0-0-0-----------------0-3-2-|
E|-------------------------------|


[Pre-Chorus]               

e|---2---2---2---2-2-2------3-|
B|---3-3-3---3-3-3-3-3----5-3-|
G|---2-0-2---2-0-2-2-2-0--5-0-|x2
D|-0-0-0-0---0-0-0-0-0-0--5-0-|
A|------------------------3-x-|
E|--------------------------3-|
             
e|---------------------2---------------------3-------|
B|---------------------3-2-------------------3-------|
G|-------------------0-2-2-----------------0-0-------|
D|---9-7-9-----9-7-9-0-0-2---9-7-9---9-7-9-0-0-------|
A|---7-5-5-----7-5-7-----0---7-5-7---7-5-7---x-------|
E|-0-----------------------0-----------------3-3b4---|


[Chorus]

e|---------------------------------------------------------|
B|---------------------------------------------------------|
G|---9---7------5-----7-------9---7------5-------7---------|x2
D|-----7----7-----5-----7-------7----7------5--------5-5---|
A|-0----------0-----0-----0-0----------0------0------3-2-0-|
E|---------------------------------------------------------|


[Interlude] 

e|-----------------------------------------------|
B|-----------------------------------------------|
G|-----------------------------------------------|
D|-7-9-7---5-7-5-----5-5---7-9-7---5-7-5-----5-5-|
A|-7-7-7---5-5-5---0-3-2---7-7-7---5-5-5---0-3-2-|
E|-----------------------------------------------|


[Verse] 
 
                   PM---|
e|-------------------------------|
B|-------------------------------|
G|-----------2-0-2---------------|x4
D|-0-2-0-2---0-0-0--0-0-0----5-5-|
A|-0-0-0-0-----------------0-3-2-|
E|-------------------------------|


[Pre-Chorus]              

e|---2---2---2---2-2-2------3-|
B|---3-3-3---3-3-3-3-3----5-3-|
G|---2-0-2---2-0-2-2-2-0--5-0-|x2
D|-0-0-0-0---0-0-0-0-0-0--5-0-|
A|------------------------3-x-|
E|--------------------------3-|
          
e|---------------------2---------------------3-------|
B|---------------------3-2-------------------3-------|
G|-------------------0-2-2-----------------0-0-------|
D|---9-7-9-----9-7-9-0-0-2---9-7-9---9-7-9-0-0-------|
A|---7-5-5-----7-5-7-----0---7-5-7---7-5-7---x-------|
E|-0-----------------------0-----------------3-3b4---|


[Chorus]

e|---------------------------------------------------------|
B|---------------------------------------------------------|
G|---9---7------5-----7-------9---7------5-------7---------|x2
D|-----7----7-----5-----7-------7----7------5--------5-5---|
A|-0----------0-----0-----0-0----------0------0------3-2-0-|
E|---------------------------------------------------------|


[Interlude]

(Guitar 1)
e|---------------------------------|
B|---------------------------------|
G|--------------------2------------| 
D|--------------------2------------|
A|-0------------------0------------|
E|---------------------------------|

(Guitar 2)              
e|-----------------------------5---------|
B|-8-7b8-5+--------------------5-7b8---7-|
G|-7-7--------7-5b6--------------7-----7-|
D|----------------------5h7~~~-----------|
A|---------------------------------------|
E|---------------------------------------|


[Guitar Solo] 

e|----------------------------------------------------|
B|----------------------------------------------------|
G|------------------------------2---------------7b9---|
D|-5h7~~~~--4h5-5~~~~---2h4---------4h7---------------|
A|---------------------------0------------------------|
E|----------------------------------------------------|

e|-------------------------------------------------|
B|-8--------8-8---8-8---8-8--8-8-------------7---5-|
G|---7b9----7-7---7-7---7-7--7-7----7-5p0----7---5-|
D|----------------------------------------7----7---|
A|-------------------------------------------------|
E|-------------------------------------------------|

e|------------------------------------------------------------|
B|-------8~~~~~------7-7~~~~-----------8~~~~--------10--------|
G|---7/9-9~~~~~---0--7-7~~~~--5----7/9-9~~~~---9/11-11-11~~-9-|
D|------------------------------------------------------------|
A|------------------------------------------------------------|
E|------------------------------------------------------------|

e|--------------------------------------------------------------|
B|----13---------13-13---------13-13----------13----13----13----|
G|-14-14---12/14-14-14---13/14-14-14-13-13-14-14-14-14-14-14-14-|
D|--------------------------------------------------------------|
A|--------------------------------------------------------------|
E|--------------------------------------------------------------|

e|-10b12~~~--------------------------------------------------------|
B|-13---------12b14-----12----10\15--15--13----15----15~~~~-15\----|
G|-------------------------------14--14-----14----14--------14\----|
D|--------------------------------------------------------------16-|
A|-----------------------------------------------------------------|
E|-----------------------------------------------------------------|

e|------------17----------17---------17b19---17b19-------------------------------|
B|-15-17b19------17b19-------17b19---17------17-----17--17--15h18p15----15/12/15-|
G|-------------------------------------------------------------------16----------|
D|-------------------------------------------------------------------------------|
A|-------------------------------------------------------------------------------|
E|-------------------------------------------------------------------------------|

e|---------------------------------17---------------------------------------------------------------------17-|
B|--------20b22-----------20----------20--17---------------------------------------------20b22-20b22~--------|
G|-1921---19------19b21-----19b21------------19b21br19----------19p17----19-19b20----------------------------|
D|---------------------------------------------------------------------19-----------19p17--------------------|
A|-----------------------------------------------------------------------------------------------------------|
E|-----------------------------------------------------------------------------------------------------------|
                                                                  End Guitar Solo 
e|-17-20p17---------17---------------20b22---20b21----17-----------------------------------|
B|----------20b22------20b22---20p17-------------------20p17-19fb-19----------17~~--------|
G|-------------------------------------------------------------------19-16-19------19-19\-|
D|----------------------------------------------------------------------------------------|
A|----------------------------------------------------------------------------------------|
E|----------------------------------------------------------------------------------------|


[Rhythm Guitar]

e|--------------------------------2-|
B|-----------------------5--------3-|
G|-2--------2------------5--------2-|x5
D|-2--------2------------5--------0-|
A|-0--------0------------3-----0----|
E|---3b4---------------3------------|

e|---2---2---2---2-2-2------3-|
B|---3-3-3---3-3-3-3-3----5-3-|
G|---2-0-2---2-0-2-2-2-0--5-0-|x2
D|-0-0-0-0---0-0-0-0-0-0--5-0-|
A|------------------------3-x-|
E|--------------------------3-|
             
e|---------------------2---------------------3-------|
B|---------------------3-2-------------------3-------|
G|-------------------0-2-2-----------------0-0-------|x2
D|---9-7-9-----9-7-9-0-0-2---9-7-9---9-7-9-0-0-------|
A|---7-5-5-----7-5-7-----0---7-5-7---7-5-7---x-------|
E|-0-----------------------0-----------------3-3b4---|


[Chorus]

e|---------------------------------------------------------|
B|---------------------------------------------------------|
G|---9---7------5-----7-------9---7------5-------7---------|x2
D|-----7----7-----5-----7-------7----7------5--------5-5---|
A|-0----------0-----0-----0-0----------0------0------3-2-0-|
E|---------------------------------------------------------|


[Outro]

(Guitar Solo)

e|---------------17---------------------------------------17-------------------------------|
B|------------------19---------------------------------------19----------------------------|
G|-19b21-----------------19~~~~~-17~~~-19~~~-19-19b21-----------19~~~~-17~~~-19~~~-19b21---|
D|-----------------------------------------------------------------------------------------|
A|-----------------------------------------------------------------------------------------|
E|-----------------------------------------------------------------------------------------|

e|------------------------------------------------------|
B|-20\--------------------------------------------------|
G|------------------------------------------------------|
D|------------------------------------------10h12~~~-10-|
A|----------------12-10-12~~~~---12~~-12\---------------|
E|------17-17\15\---------------------------------------|

e|-------------------------------------------------------------------------------------------------|
B|-10b12br10-------10b12---10\--------------------------------10b12r10-------10b12---10\--20b22----|
G|-12-----------12-12------12\-17b18-------------17-----------12----------12-12------12\-----------|
D|-------------------------------------19-17h19-----19-19-19\--------------------------------------|
A|-------------------------------------------------------------------------------------------------|
E|-------------------------------------------------------------------------------------------------|

e|----17------------7-------------------------------------------------17-------------------------------------|
B|-20----17-20b22-----7-20---20---20\--20b22---20b22---20b22---20b22-----20-17----------------------------20-|
G|----------------------------------------------------------------------------19b21br1919p17-19b21-----------|
D|-----------------------------------------------------------------------------------------------------------|
A|-----------------------------------------------------------------------------------------------------------|
E|-----------------------------------------------------------------------------------------------------------|

e|-----------------------------------------------------------------------------------------|
B|--------------20-20b22---20b22---20-------------------------19-17--XXXXXXXXX----2------2-|
G|-19b21~~---19----19------19------1921br21-19-19~~~-17-------19-17--XXXXXXXXX7p5-2------2-|
D|---------------------------------------------------------19---------------------2------2-|
A|--------------------------------------------------------------------------------0------0-|
E|----------------------------------------------------------------------------------34-----|


(Rhythm Guitar)                                     

e|---------------------------------------------------------|
B|---------------------------------------------------------|
G|---9---7------5-----7-------9---7------5-------7---------|x3
D|-----7----7-----5-----7-------7----7------5--------5-5---|
A|-0----------0-----0-----0-0----------0------0------3-2-0-|
E|---------------------------------------------------------|

e|--------------------------------2-|
B|-----------------------5--------3-|
G|-2--------2------------5--------2-|
D|-2--------2------------5--------0-|x3
A|-0--------0------------3-----0----|
E|---3b4---------------3------------|


***********************************

| /   Slide up
| \   Slide down
| h   Hummer-on
| p   Pull-off
| ~   Vibrato
| +   Harmonic
| x   Dead note
| b   Bend
| br  Bend release
| PM  Palm mute

***********************************
comments
print report bad tab
161 comments total. Showing first comments.
+4 reply
guitardude72565 wrote on June 9 2003, 12:00 am

this is really good

+6 reply
nikki7 wrote on July 20 2003, 12:00 am

great tab 100% correct and thats rare

+5 reply
CkY freak wrote on March 14 2004, 12:00 am

perfect

I want to post or [tab]
guest
You may want to rate the tab now too:
select rating
Please do not post tabs as comments. Select "correction" instead!