Oops, an error
Loading. Please wait.

Highway To Hell Bass Tab

version 1
version 1
282,385 views 675 this week
19 commentsread comments
1 2 3 4 5
x 107
add to favorites
launch autoscroll
font size
0
reset
guitar tuner
×
Best way to learn
"Highway To Hell"
Autoscroll
slow
fast
+/-
esc
set tempo
stop
Song  Highway to Hell
Artist  AC/DC
Album  Highway to Hell
Tabbed by Salvager
 
The bass isn't really played during the intro and verses but I tabbed it anyway.
 

[Intro/Verse]
 
G|-----------------------------------------|
D|-----------------------------------------| (Sounds good an
A|-----------------------------------------| octave higher too)
E|-5-5-5-----2-2-3---2-2-3--2-2-3---2--5-5-|
 

[Pre-Chorus]
 
G|-----------------------------|
D|-----------------------------| 
A|-----------------------------|
E|-0---0-0-0-0-0-0-0-0-0-0-0-0-|
 

[Chorus]
 
G|-----------------|  
D|-------------5---| (Staccato, except 
A|-0-0-0-0-0-0---5-| for the last two. 
E|-----------------| Play with the drums)
 
G|-----------------| 
D|-----------------| 
A|-0-0-0-0-0-0-5---|
E|-----------------|
 

[Bridge to Solo]
 
G|--------------------------|
D|--------------------------|
A|-5--5--5----5--5--5--5--5-|
E|--------------------------|
 
Play Chorus for the Solo
 

[Outro]
 
G|---------------------|
D|---------------------|
A|-0-0-0-0-0-0-0-0-...-|
E|---------------------|
 
I may have missed something, but this is pretty much it. Enjoy!
Suggest correction
comments
print report bad tab
19 comments total. Showing first comments.
+1 reply
wichonespink 10 Jun 23, 2007 04:59 PM

Nice Intro

-2 reply
metallord61 31 Jul 16, 2007 12:59 AM

the chorus is wrong its like this:

g1--------------------------]
d2---------------------5----]
a3--0-0-0-0-0-5-5--5-5---5--]
e4--------------------------]

-2 reply
SlashIsGod091 93 Aug 12, 2007 09:16 AM

great tab! but i do agree with metallord61 about the chorus. but you do know there is no bass in the intro and verses right?

guest
You may want to rate the tab now too:
select rating
Wanna post a correction for this tab? Suggest correction