Oops, an error
Loading. Please wait.

Highway To Hell Bass

version 1
version 1
by AC/DC
287,701 views 702 this week
21 commentsread comments
1 2 3 4 5
x 108
add to favorites
launch autoscroll
font size
0
reset
guitar tuner
×
Best way to learn
"Highway To Hell"
Autoscroll
slow
fast
+/-
esc
set tempo
stop
Author
Song  Highway to Hell
Artist  AC/DC
Album  Highway to Hell
Tabbed by Salvager
 
The bass isn't really played during the intro and verses but I tabbed it anyway.
 

[Intro/Verse]
 
G|-----------------------------------------|
D|-----------------------------------------| (Sounds good an
A|-----------------------------------------| octave higher too)
E|-5-5-5-----2-2-3---2-2-3--2-2-3---2--5-5-|
 

[Pre-Chorus]
 
G|-----------------------------|
D|-----------------------------| 
A|-----------------------------|
E|-0---0-0-0-0-0-0-0-0-0-0-0-0-|
 

[Chorus]
 
G|-----------------|  
D|-------------5---| (Staccato, except 
A|-0-0-0-0-0-0---5-| for the last two. 
E|-----------------| Play with the drums)
 
G|-----------------| 
D|-----------------| 
A|-0-0-0-0-0-0-5---|
E|-----------------|
 

[Bridge to Solo]
 
G|--------------------------|
D|--------------------------|
A|-5--5--5----5--5--5--5--5-|
E|--------------------------|
 
Play Chorus for the Solo
 

[Outro]
 
G|---------------------|
D|---------------------|
A|-0-0-0-0-0-0-0-0-...-|
E|---------------------|
 
I may have missed something, but this is pretty much it. Enjoy!
Suggest correction
comments
print report bad tab
21 comments total. Showing first comments.
+1 reply
wichonespink 10 Jun 23, 2007 04:59 PM

Nice Intro

0 reply
playinbass1432 1,442 Oct 15, 2007 01:37 PM

Actually you're both wrong about the chorus.

G|------------------|
D|------------5--4--|
A|------------------|
E|-5--5--5--5-------|

0 reply
sweaty_fox 20 Nov 19, 2007 06:07 AM

I play the
verse:

G|--------------------------------------------|
D|--------------------------------------------|
A|----------
----5-----------------------------|
E|5-5-5-----5-5----2-2-3---2-2-3---2-----5-5--|

I think it complements the
guitar better.

guest
You may want to rate the tab now too:
select rating
Wanna post a correction for this tab? Suggest correction