Oops, an error
Loading. Please wait.
We have an official Highway To Hell tab made by UG professional guitarists. Check out the tab »
×
by AC/DC
62,564 views 57 this week
4 commentsread comments
1 2 3 4 5
x 18
add to favorites
×
Save as Personal and add changes to this tab that will be seen only by you. Learn more ›
×
You can save this tab as Personal to edit and correct it or add notes. All changes will be seen only by you. Learn more »
launch autoscroll
font size
0
reset
guitar tuner
edit
Autoscroll
slow
fast
+/-
esc
set tempo
stop
AC/DC-Highway to Hell (Album)
Recorded: February-April 1979
Released: July 27, 1979

================================================
TAB INFORMATION, CONTACT DETAILS
================================================

Transcribed by: Alex M. (playinbass1432)
Email: playinbass1432@hotmail.com
Site: www.ultimate-guitar.com
Date of transcription: June 26th-July 6th, 2008

================================================
PLEASE RATE AND COMMENT!!!
================================================

TRACK LISTING:

1. Highway to Hell (3:28)
2. Girls Got Rhythm (3:23)
3. Walk All Over You (5:10)
4. Touch Too Much (4:26)
5. Beating Around the Bush (3:55)
6. Shot Down In Flames (3:22)
7. Get It Hot (2:34)
8. If You Want Blood (You've Got It) (4:36)
9. Love Hungry Man (4:17)
10. Night Prowler (6:27)

All songs wirtten by Young, Young, Scott
All songs tuned 1/4 step down, except where noted

================================================
1. HIGHWAY TO HELL
================================================

Rest through Intro, Verse 1

Pre Chorus/Chorus 1:

   E                                   A                         G   F#
G|-----------------|-----------------|-----------------|-----------------|
D|-----------------|-----------------|-----------------|---------5---4---|
A|-----------------|-----------------|-----------------|-----------------|
E|-0---0-0-0-0-0-0-|-0-0-0-0-0-0-0-0-|-5---5---5---5---|-5---5-----------|

   A                         G   F#    A                         G   A
G|-----------------|-----------------|-----------------|-----------------|
D|-----------------|---------5---4---|-----------------|---------5---7---|
A|-----------------|-----------------|-----------------|-----------------|
E|-5---5---5---5---|-5---5-----------|-5---5---5---5---|-5---5-----------|

   A             D
G|-----------------|-----------------|-----------------|
D|-----------------|-----------------|-----------------|
A|---------------5-|-----------------|-----------------|
E|-5---5---5---5---|-----------------|-----------------|

Rest through Verse 2

Pre Chorus/Chorus 2:

   E                                   A                         G   F#
G|-----------------|-----------------|-----------------|-----------------|
D|-----------------|-----------------|-----------------|---------5---4---|
A|-----------------|-----------------|-----------------|-----------------|
E|-0---0-0-0-0-0-0-|-0-0-0-0-0-0-0-0-|-5---5---5---5---|-5---5-----------|

   A                         G   A     A                   E     G   F#
G|-----------------|-----------------|-----------------|-----------------|
D|-----------------|---------5---7---|-----------------|-----------------|
A|-----------------|-----------------|-----------------|-----------------|
E|-5---5---5---5---|-5---5-----------|-5---5---5---5---|-5-0-2-0-3---2---|

   A             D                     D
G|-----------------|-----------------|-----------------|-----------------|
D|-----------------|-----------------|-----------------|-----------------|
A|---------------5-|-----------------|-5-5-5-5-5-5-5---|-----------------|
E|-5---5---5---5---|-----------------|-----------------|-----------------|

   D                            E
G|-----------------|-----------------|
D|-----------------|-----------------|
A|-5-5-5-5-5-5-5-5-|-5-5-5-5-5-------|
E|-----------------|-----------0-2-0-|

Guitar Solo:

   A                         G   F#    A                         G   F#
G|-----------------|-----------------|-----------------|-----------------|
D|-----------------|---------5---4---|-----------------|---------5---4---|
A|-----------------|-----------------|-----------------|-----4-7---------|
E|-5---5---5---5---|-5---5-----------|-5---5---5---5---|-5---------------|

   A                         G   A     A                   E     G   F#
G|-----------------|-----------------|-----------------|-----------------|
D|-----------------|---------5---7---|-----------------|-----------------|
A|-----------------|-------x---------|-----------------|-----------------|
E|-5---5---5---5---|-5---5-----------|-5---5---5---5-0-|-5-0-2-0-3---2---|

Chorus 3:

   A                         G   F#    A                         G   A
G|-----------------|-----------------|-----------------|-----------------|
D|-----------------|---------5---4---|-----------------|---------5---7---|
A|-----------------|-----4-7---------|-----------------|-----4-7---------|
E|-5---5---5---5---|-5---------------|-5---5---5---5---|-5---------------|

   A                         G    F#   A             D           G   D
G|-----------------|-----------------|-----------------|-----------------|
D|-----------------|-----------------|-----------------|---------5-------|
A|-----------------|-----------------|---------------5-|-------------5---|
E|-5---5---5---5---|-5-0-2-0-3---2---|-5---5---5---5---|-----------------|

   A                                                             G   A
G|-----------------|-----------------|-----------------|-----------------|
D|-----------------|-----------------|-----------------|---------5---7---|
A|-----------------|-----------------|-----------------|-----------------|
E|-5---5---5---5---|-5---5---5---5---|-5---5---5---5---|-5---5-5---------|

   A                          G   F#   A             D
G|-----------------|-----------------|-----------------|-----------------|
D|-----------------|-----------------|-----------------|-----------------|
A|-----------------|-----------------|---------------5-|-----------------|
E|-5---5---5---5---|-5---5-0-3---2---|-5---5---5---5---|-----------------|

Free time:

   A
G|-----------------|-----------------|-----------------|----------------|
D|-----------------|-----------------|-----------------|----------------|
A|-----------------|-----------------|-----------------|----------------|
E|55555555555555555|55555555555555555|55555555555555555|------------5\--|


Living easy, living free
Season ticket on a one-way ride
Asking nothing, leave me be
Taking everything in my stride
Dont need reason, dont need rhyme
Aint nothing I would rather do
Going down, party time
My friends are gonna be there too

Im on the highway to hell

No stop signs, speed limit
Nobodys gonna slow me down
Like a wheel, gonna spin it
Nobodys gonna mess me round
Hey satan, payed my dues
Playing in a rocking band
Hey momma, look at me
Im on my way to the promised land

Im on the highway to hell
(dont stop me)

And Im going down, all the way down
Im on the highway to hell

================================================
2. GIRLS GOT RHYTHM
================================================
Tune up 1/5 step (From standard)

Intro (After 4 bars of rest)

   D     C              A              D     C             A
G|-----------------|-----------------|-----------------|-----------------|
D|-----------------|-----------------|-----------------|-----------------|
A|-5-----3---------|-----------------|-5-----3---------|-----------------|
E|---5-5---------0-|-2-5-5-5-5-5-5-5-|---5-5---------0-|-2-5-5-2-5-------|

Verse 1:

   A
G|-----------------|-----------------|-----------------|-----------------|
D|-----------------|-----------------|-----------------|-----------------|
A|-----------------|-----------------|-----------------|-----------------|
E|-5-----5-5-----5-|-5-----5-5-----5-|-5-----5-5-----5-|-5-----5-5-----5-|

   A
G|-----------------|-----------------|-----------------|-----------------|
D|-----------------|-----------------|-----------------|-----------------|
A|-----------------|-----------------|-----------------|-----------------|
E|-5-----5-5-----5-|-5-----5-5-----5-|-5-----5-5-----5-|-5-----5-5-----5-|

   A
G|-----------------|-----------------|-----------------|-----------------|
D|-----------------|-----------------|-----------------|-----------------|
A|-----------------|-----------------|-----------------|-----------------|
E|-5-----5-5-----5-|-5-----5-5-----5-|-5-----5-5-----5-|-5-----5-5-----5-|

   A
G|-----------------|-----------------|-----------------|-----------------|
D|-----------------|-----------------|-----------------|-----------------|
A|-----------------|-----------------|-----------------|-----------------|
E|-5-----5-5-----5-|-5-----5-5-----5-|-5-----5-5-----5-|-5-----5-5-----5-|

Pre Chorus 1:

   D                   A               D                    A
G|-----------------|-----------------|-----------------|-----------------|
D|-----------------|-----------------|-----------------|-----------------|
A|-5-5---5---------|-----------------|-5-5---5---------|-----------------|
E|---------------0-|-2-5---5-5---5-5-|---------------0-|-2-5---5-5---5-5-|

   D                   A               B             E
G|-----------------|-----------------|-----------------|-----------------|
D|-----------------|-----------------|-----------------|-----------------|
A|-5-5---5---------|-----------------|-2-2---2-2-2-2---|-----------------|
E|---------------0-|-2-5---5-5---5-5-|---------------0-|---0-0-0-0-0-0-0-|

Chorus 1:

   D     C              A              D     C             A
G|-----------------|-----------------|-----------------|-----------------|
D|-----------------|-----------------|-----------------|-----------------|
A|-5-----3---------|-----------------|-5-----3---------|-----------------|
E|---5-5---------0-|-2-5-5-5-5-5-5-5-|---5-5---------0-|-2-5-5-5-5-5-5-5-|

   D     C              A              D     C             A
G|-----------------|-----------------|-----------------|-----------------|
D|-----------------|-----------------|-----------------|-----------------|
A|-5-----3---------|-----------------|-5-----3---------|-----------------|
E|---5-5---------0-|-2-5-5-5-2-5-5-5-|---5-5---------0-|-2-5-5-5-5-5-5-5-|

Pre Verse 2:

   D     C              A              D     C             A
G|-----------------|-----------------|-----------------|-----------------|
D|-----------------|-----------------|-----------------|-----------------|
A|-5-----3---------|-----------------|-5-----3---------|-----------------|
E|---5-5---------0-|-2-5-5-5-5-5-5-5-|---5-5---------0-|-2-5-5-2-5-------|

Verse 2:

   A
G|-----------------|-----------------|-----------------|-----------------|
D|-----------------|-----------------|-----------------|-----------------|
A|-----------------|-----------------|-----------------|-----------------|
E|-5-----5-5-----5-|-5-----5-5-----5-|-5-----5-5-----5-|-5-----5-5-----5-|

   A
G|-----------------|-----------------|-----------------|-----------------|
D|-----------------|-----------------|-----------------|-----------------|
A|-----------------|-----------------|-----------------|-----------------|
E|-5-----5-5-----5-|-5-----5-5-----5-|-5-----5-5-----5-|-5-----5-5-----5-|

   A
G|-----------------|-----------------|-----------------|-----------------|
D|-----------------|-----------------|-----------------|-----------------|
A|-----------------|-----------------|-----------------|-----------------|
E|-5-----5-5-----5-|-5-----5-5-----5-|-5-----5-5-----5-|-5-----5-5-----5-|

   A
G|-----------------|-----------------|-----------------|-----------------|
D|-----------------|-----------------|-----------------|-----------------|
A|-----------------|-----------------|-----------------|-----------------|
E|-5-----5-5-----5-|-5-----5-5-----5-|-5-----5-5-----5-|-5-----5-5-----5-|

Pre Chorus 2:

   D                   A               D                    A
G|-----------------|-----------------|-----------------|-----------------|
D|-----------------|-----------------|-----------------|-----------------|
A|-5-5---5---------|-----------------|-5-5---5---------|-----------------|
E|---------------0-|-2-5---5-5---5-5-|---------------0-|-2-5---5-5---5-5-|

   D                   A               B             E
G|-----------------|-----------------|-----------------|-----------------|
D|-----------------|-----------------|---------------2-|---2-2-2-2-2-2\--|
A|-5-5---5---------|-----------------|-2-2---2-2-2-2---|-----------------|
E|---------------0-|-2-5---5-5---5-5-|-----------------|-----------------|

Chorus 2:

   D     C              A              D     C             A
G|-----------------|-----------------|-----------------|-----------------|
D|-----------------|-----------------|-----------------|-----------------|
A|-5-----3---------|-----------------|-5-----3---------|-----------------|
E|---5-5---------0-|-2-5-5-5-5-5-5-5-|---5-5---------0-|-2-5-5-5-5-5-5-5-|

   D     C              A              D     C             A
G|-----------------|-----------------|-----------------|-----------------|
D|-----------------|-----------------|-----------------|-----------------|
A|-5-----3---------|-----------------|-5-----3---------|-----------------|
E|---5-5---------0-|-2-5-5-5-5-5-5-5-|---5-5---------0-|-2-5-5-5-5-5-5-5-|

Guitar Solo:

   D     C              A              D     C             A
G|-----------------|-----------------|-----------------|-----------------|
D|-----------------|-----------------|-----------------|-----------------|
A|-5-----3---------|-----------------|-5-----3---------|-----------------|
E|---5-5---------0-|-2-5-5-5-5-5-5-5-|---5-5---------0-|-2-5-5-5-5-5-5-5-|

   D     C              A              D     C             A
G|-----------------|-----------------|-----------------|-----------------|
D|-----------------|-----------------|-----------------|-----------------|
A|-5-----3---------|-----------------|-5-----3---------|-----------------|
E|---5-5---------0-|-2-5-5-5-2-5-5-5-|---5-5---------0-|-2-5-5-5-5-5-5-5-|

   D     C              A              D     C             A
G|-----------------|-----------------|-----------------|-----------------|
D|-----------------|-----------------|-----------------|---------5-6-7---|
A|-5-----3---------|-----------------|-5-----3---------|-------5-------7-|
E|---5-5---------0-|-2-5-5-5-5-5-5-5-|---5-5---------0-|-2-5-5-----------|

   D     C              A              D     C             A
G|-----------------|-----------------|-----------------|-----------------|
D|-----------------|-----------------|-----------------|-----------------|
A|-5-----3---------|-----------------|-5-----3---------|-----------------|
E|---5-5---------0-|-2-5-5-5-2-5-5-5-|---5-5---------0-|-2-5-5-5-5-5-5-5-|

Pre Chorus 3:

   D                   A               D                    A
G|-----------------|-----------------|-----------------|-----------------|
D|-----------------|-----------------|-----------------|-----------------|
A|-5-5---5---------|-----------------|-5-5---5---------|-----------------|
E|---------------0-|-2-5---5-5---5-5-|---------------0-|-2-5-----2-5-5-5-|

   D                   A               B             E
G|-----------------|-----------------|-----------------|-----------------|
D|-----------------|-----------------|-----------------|-----------------|
A|-5-5---5---------|-----------------|-2-2---2-2-2-2---|---------------5-|
E|---------------0-|-2-5---5-5---5-5-|---------------0-|---0-0-0-0-0-3---|

Chorus 3/Outro:

   D     C              A              D     C             A
G|-----------------|-----------------|-----------------|-----------------|
D|-----------------|-----------------|-----------------|--------/7---7---|
A|-5-----3---------|-----------------|-5-----3---------|---------------7-|
E|---5-5---------0-|-2-5-5-5-5-5-5-5-|---5-5---------0-|-2-5-5-----------|

   D     C              A              D     C             A
G|-----------------|-----------------|-----------------|-----------------|
D|-----------------|-----------------|-----------------|-----------5-6-7-|
A|-5-----3---------|-----------------|-5-----3---------|-----------------|
E|---5-5---------0-|-2-5-5-5-2-5-5-5-|---5-5---------0-|-2-5-5-5-5-------|

   D     C              A              D     C             A
G|-----------------|-----------------|-----------------|-----------------|
D|-----------------|-----------------|-----------------|-----------------|
A|-5-----3---------|-----------------|-5-----3---------|-----------------|
E|---5-5---------0-|-2-5-5-5-5-5-5-5-|---5-5---------0-|-2-5-5-5-5-5-5-5-|

   D     C              A              D     C             A
G|-----------------|-----------------|-----------------|-----------------|
D|-----------------|-----------------|-----------------|-----------------|
A|-5-----3---------|-----------------|-5-----3---------|-----------------|
E|---5-5---------0-|-2-5-5-5-5-5-5-5-|---5-5---------0-|-2-5-5-2-5-------|


I've been around the world
I've seen a million girls
Ain't one of them got
What my lady she's got
She steals the spotlight
Knocks me off my feet
She's enough to start a landslide
Just a walking down the street
Wearing dresses so tight
And looking dynamite
Enough to blow me out
No doubt about it can't live without it

The girl's got rhythm
The girl's got rhythm
She's got the backseat rhythm
The girl's got rhythm

She's like a lethal brand
Too much for any man
She gives me first degree
She really satisfies me
Love me till I'm legless
Aching and sore
Enough to stop a freight train
Or start the Third World War
You know I'm losing sleep
I'm in too deep
And my body needs love
No doubt about it can't live without it

The girl's got rhythm
The girl's got rhythm
She's got the backseat rhythm
The girl's got rhythm

You know she moves like sin
And when she lets me in
It's like liquid love
No doubt about it can't live without it

You know she really got the rhythm
She's got the backseat rhythm
Rock 'n' roll rhythm
The girl's got rhythm

================================================
3. WALK ALL OVER YOU
================================================

Intro: (0:25)

   E                 G       D         A
G|-----------------|-----------------|-----------------|-----------------|
D|-----------------|-----------------|-----------------|-----------------|
A|-----------------|---------5-------|-----------------|-----------------|
E|-0---------------|-3---------------|-5---------------|-----------------|

   E                 G       D         A
G|-----------------|-----------------|-----------------|-----------------|
D|-----------------|-----------------|-----------------|-----------------|
A|-----------------|---------5-------|-----------------|-----------------|
E|-0---------------|-3---------------|-5---------------|-----------------|

Pre Verse 1: (Double time)

G|-----------------|-----------------|-----------------|-----------------|
D|-----------------|-----------------|-----------------|-----------------|
A|-----------------|-----------------|-----------------|-----------------|
E|-----------------|-----------------|-----------------|-----------------|

                                                                     E
G|-----------------|-----------------|-----------------|-----------------|
D|-----------------|-----------------|-----------------|-----------------|
A|-----------------|-----------------|-----------------|-----------------|
E|-----------------|-----------------|-----------------|----------0-12\--|

   E     G     D        A              E     G     D       A
G|-----------------|-----------------|-----------------|-----------------|
D|-----------------|-----------------|-----------------|-----------------|
A|-------------5-5-|-5---------------|-------------5-5-|-5---------------|
E|-0-0-0-3-3-3-----|---5-5-5-3-5-5-5-|-0-0-0-3-3-3-----|---5-5-5-3-5-5-5-|

   E     G     D        A              E     G     D       A
G|-----------------|-----------------|-----------------|-----------------|
D|-----------------|-----------------|-----------------|-----------------|
A|-------------5-5-|-5---------------|-------------5-5-|-5---------------|
E|-0-0-0-3-3-3-----|---5-5-5-5-5-5-5-|-0-0-0-3-3-3-----|---5-5-5-3-5-3p2-|

Verse 1:

   E                                   G                   D
G|-----------------|-----------------|-----------------|-----------------|
D|-----------------|-----------------|-----------------|-----------------|
A|-----------------|-----------------|-----------------|---5-5-5-5-5-5-5-|
E|-0-0-0-0-0-0-0-0-|-0-0-0-0-0-0-0-0-|-3-3-3-3-3-3-3-3-|-3---------------|

   E                                   G                   D
G|-----------------|-----------------|-----------------|-----------------|
D|-----------------|-----------------|-----------------|-----------------|
A|-----------------|-----------------|-----------------|---5-5-5-5-5-5-5-|
E|-0-0-0-0-0-0-0-0-|-0-0-0-0-0-0-0-0-|-3-3-3-3-3-3-3-3-|-3---------------|

   E                                   G                   D
G|-----------------|-----------------|-----------------|-----------------|
D|-----------------|-----------------|-----------------|-----------------|
A|-----------------|-----------------|-----------------|---5-5-5-5-5-5-5-|
E|-0-0-0-0-0-0-0-0-|-0-0-0-0-0-0-0-0-|-3-3-3-3-3-3-3-3-|-3---------------|

   A
G|-----------------|-----------------|-----------------|-----------------|
D|-----------------|-----------------|-----------------|-----------------|
A|-----------------|-----------------|-----------------|---4-4-5-6---6-7-|
E|-5-5-5-5-5-5-5-5-|-5-5-5-5-5-5-5-5-|-5-5-5-5-5-5-5-5-|-5---------------|

   E                                   G                   D
G|-----------------|-----------------|-----------------|-----------------|
D|-----------------|-----------------|-----------------|-----------------|
A|-----------------|-----------------|-----------------|---5-5-5-5-5-5-5-|
E|-0-0-0-0-0-0-0-0-|-0-0-0-0-0-0-0-0-|-3-3-3-3-3-3-3-3-|-3---------------|

   E                                   G                   D
G|-----------------|-----------------|-----------------|-----------------|
D|-----------------|-----------------|-----------------|-----------------|
A|-----------------|-----------------|-----------------|---5-5-5-5-5-5-5-|
E|-0-0-0-0-0-0-0-0-|-0-0-0-0-0-0-0-0-|-3-3-3-3-3-3-3-3-|-3---------------|

   E                                   G                   D
G|-----------------|-----------------|-----------------|-----------------|
D|-----------------|-----------------|-----------------|-----------------|
A|-----------------|---5-----4---2---|-----------------|---5-5-5-5-5-5-5-|
E|-0-0-0-0-0-0-0-0-|-0-------------0-|-3-3-3-3-3-3-3-3-|-3---------------|

  Half speed-------------------------|
   A                                   A
G|-----------------|-----------------|-----------------|-----------------|
D|-----------------|-----------------|-----------------|-----------------|
A|-----------------|-----------------|-----------------|-----------------|
E|-5---------------|-----------------|-5-5-5-5-5-5-5-5-|-5-5-5-5-5-5-5---|

Chorus 1: (Half speed)

   E                 G       D         E                 G       D
G|-----------------|-----------------|-----------------|-----------------|
D|-----------------|-----------------|-----------------|-----------------|
A|-----------------|---------5-------|-----------------|---------5-------|
E|-0---------------|-3---------------|-0---------------|-3---------------|

                                       Double time
   E                 G       D         E
G|-----------------|-----------------|-----------------|-----------------|
D|-----------------|-----------------|-----------------|-----------------|
A|-----------------|---------5-------|-----------------|-----------------|
E|-0---------------|-3---------------|-5---------------|-----------------|

   A
G|-----------------|-----------------|
D|-----------------|-----------------|
A|-----------------|-----------------|
E|-5-5-5-5-5-5-5-5-|-5-5-5-5-5-5-5---|

Guitar Solo 1:

   E     G     D        A              E     G     D       A
G|-----------------|-----------------|-----------------|-----------------|
D|-----------------|-----------------|-----------------|-----------------|
A|-------------5-5-|-5---------------|-------------5-5-|-5---------------|
E|-0-0-0-3-3-3-----|---5-5-5-3-5-5-5-|-0-0-0-3-3-3-----|---5-5-5-3-5-3p2-|

   E     G     D        A              E     G     D       A
G|-----------------|-----------------|-----------------|-----------------|
D|-----------------|-----------------|-----------------|-----------------|
A|-------------5-5-|-5---------------|-------------5-5-|-5---------------|
E|-0-0-0-3-3-3-----|---5-5-5-3-5-5-5-|-0-0-0-3-3-3-----|---5-5-5-3-5-5-5-|

Verse 2:

   E                                   G                   D
G|-----------------|-----------------|-----------------|-----------------|
D|-----------------|-----------------|-----------------|-----------------|
A|-----------------|-----------------|-----------------|---5-5-5-5-5-5-5-|
E|-0-0-0-0-0-0-0-0-|-0-0-0-0-0-0-0-0-|-3-3-3-3-3-3-3-3-|-3---------------|

   E                                   G                   D
G|-----------------|-----------------|-----------------|-----------------|
D|-----------------|-----------------|-----------------|-----------------|
A|-----------------|-----------------|-----------------|---5-5-5-5-5-5-5-|
E|-0-0-0-0-0-0-0-0-|-0-0-0-0-0-0-0-0-|-3-3-3-3-3-3-3-3-|-3---------------|

   E                                   G                   D
G|-----------------|-----------------|-----------------|-----------------|
D|-----------------|-----------------|-----------------|-----------------|
A|-----------------|-----------------|-----------------|---5-5-5-5-5-5-5-|
E|-0-0-0-0-0-0-0-0-|-0-0-0-0-0-0-0-0-|-3-3-3-3-3-3-3-3-|-3---------------|

  Half speed-------------------------|
   A                                   A
G|-----------------|-----------------|-----------------|-----------------|
D|-----------------|-----------------|-----------------|-----------------|
A|-----------------|-----------------|-----------------|-----------------|
E|-5---------------|-----------------|-5-5-5-5-5-5-5-5-|-5-5-5-5-5-5-5---|

Chorus 2: (Half speed)

   E                 G       D         E                 G       D
G|-----------------|-----------------|-----------------|-----------------|
D|-----------------|-----------------|-----------------|-----------------|
A|-----------------|---------5-------|-----------------|---------5-------|
E|-0---------------|-3---------------|-0---------------|-3---------------|

                                       Double time
   E                 G       D         E
G|-----------------|-----------------|-----------------|-----------------|
D|-----------------|-----------------|-----------------|-----------------|
A|-----------------|---------5-------|-----------------|-----------------|
E|-0---------------|-3---------------|-5---------------|-----------------|

   A
G|-----------------|-----------------|
D|-----------------|-----------------|
A|-----------------|-----------------|
E|-5-5-5-5-5-5-5-5-|-5-5-5-5-5---5---|

Guitar Solo 2:

   E     G     D        A              E     G     D       A
G|-----------------|-----------------|-----------------|-----------------|
D|-----------------|-----------------|-----------------|-----------------|
A|-------------5-5-|-5---------------|-------------5-5-|-5---------------|
E|-0-0-0-3-3-3-----|---5-5-5-3-5-5-5-|-0-0-0-3-3-3-----|---5-5-5-3-5-5-5-|

   E     G     D        A              E     G     D       A
G|-----------------|-----------------|-----------------|-----------------|
D|-----------------|-----------------|-----------------|-----------------|
A|-------------5-5-|-5---------------|-------------5-5-|-5-------5---5-7-|
E|-0-0-0-3-3-3-----|---5-5-5-5-5-5-5-|-0-0-0-3-3-3-----|---5-5-5---------|

   E     G     D        A              E     G     D       A
G|-----------------|-----------------|-----------------|-----------------|
D|-----------------|-----------------|-----------------|-----------------|
A|-------------5-5-|-5---------------|-------------5-5-|-5-----------5-7-|
E|-0-0-0-3-3-3-----|---5-5-5-3-5-3p2-|-0-0-0-3-3-3-----|---5-5-5-3-5-----|

   E     G     D        A              E     G     D       A
G|-----------------|-----------------|-----------------|-----------------|
D|-----------------|-----------------|-----------------|-----------------|
A|-------------5-5-|-5---------------|-------------5-5-|-5---------------|
E|-0-0-0-3-3-3-----|---5-5-5-5-5-5-5-|-0-0-0-3-3-3-----|---5-5-5-3-5-5---|

Bridge:

   G                                   A
G|-----------------|-----------------|-----------------|-----------------|
D|-----------------|-----------------|-----------------|-----------------|
A|-----------------|-----------------|-----------------|-----------------|
E|-3-3-3-3-3-3-3-3-|-3-3-3-3-3-3-3-3-|-5-5-5-5-5-5-5-5-|-5-5-5-5-5-5-5-5-|

   G                                   A                   B
G|-----------------|-----------------|-----------------|-----------------|
D|-----------------|-----------------|-----------------|-----------------|
A|-----------------|-----------------|-----------------|-----------------|
E|-3-3-3-3-3-3-3-3-|-3-3-3-3-3-3-3-3-|-5-5-5-5-5-5-5-5-|-5-7-7-7-7---7---|

   E
G|-----------------|-----------------|-----------------|-----------------|
D|-----------------|-----------------|-----------------|-----------------|
A|-----------------|-----------------|-----------------|-----------------|
E|-0---------------|-----------------|-0---------------|------------12\--|

   E     G     D        A              E     G     D       A
G|-----------------|-----------------|-----------------|-----------------|
D|-----------------|-----------------|-----------------|-----------------|
A|-------------5-5-|-5---------------|-------------5-5-|-5---------------|
E|-0-0-0-3-3-3-----|---5-5-5-3-5-5-5-|-0-0-0-3-3-3-----|---5-5-5-5-5-5-5-|

Verse 3:

   E                                   G                   D
G|-----------------|-----------------|-----------------|-----------------|
D|-----------------|-----------------|-----------------|-----------------|
A|-----------------|-----------------|-----------------|---5-5-5-5-5-5-5-|
E|-0-0-0-0-0-0-0-0-|-0-0-0-0-0-0-0-0-|-3-3-3-3-3-3-3-3-|-3---------------|

   E                                   G                   D
G|-----------------|-----------------|-----------------|-----------------|
D|-----------------|-----------------|-----------------|-----------------|
A|-----------------|---5-----4---2---|-----------------|---5-5-5-5-5-5-5-|
E|-0-0-0-0-0-0-0-0-|-0-------------0-|-3-3-3-3-3-3-3-3-|-3---------------|

   E                                   G                   D
G|-----------------|-----------------|-----------------|-----------------|
D|-----------------|-----------------|-----------------|-----------------|
A|-----------------|-----------------|-----------------|---5-5-5-5-5-5-5-|
E|-0-0-0-0-0-0-0-0-|-0-0-0-0-0-0-0-0-|-3-3-3-3-3-3-3-3-|-3---------------|

  Half speed-------------------------|
   A                                   A
G|-----------------|-----------------|-----------------|-----------------|
D|-----------------|-----------------|-----------------|-----------------|
A|-----------------|-----------------|-----------------|-----------------|
E|-5---------------|-----------------|-5-5-5-5-5-5-5-5-|-5-5-5-5-5-5-5---|

Chorus 3: (Half speed)

   E                 G       D         E                 G       D
G|-----------------|-----------------|-----------------|-----------------|
D|-----------------|-----------------|-----------------|-----------------|
A|-----------------|---------5-------|-----------------|---------5-------|
E|-0-----------0-2-|-3---------------|-0-----------0-2-|-3---------------|

   E                 G       D
G|-----------------|-----------------|-----------------|-----------------|
D|-----------------|-----------------|-----------------|-----------------|
A|-----------------|---------5-------|-----------------|-----------------|
E|-0-----------0-2-|-3---------------|-----------------|-----------------|

Outro: (Free time)

   E
G|-----------------|-----------------|-----------------|-----------------|
D|-----------------|-----------------|-----------------|-----------------|
A|-----------------|-----------------|44444445555577777|77777777777777---|
E|-0---000000000000|00000000000000000|-----------------|-----------------|

G|-----------------|-----------------|
D|-----------------|-----------------|
A|-----------------|-----------------|
E|-----------------|-----------------|


Out of my way I'm running high
Take your chance with me and I'll give it a try
Ain't no woman in the world I know
'Cause I ain't looking for a woman,no!
Oh baby I ain't got much
Resistance to your touch
Take off the high heels, let down your hair
Paradise ain't far from there

I wanna walk all over you
I wanna walk all over you
Do anything you want me to, baby
I wanna walk all over you

Reflections on the bedroom wall
And there you thought you'd see it all
We're rising, falling like the sea
You're looking so good under me

I'm gonna walk all over you
I'm gonna walk all over you
Do anything you want me to do to you
I'm gonna walk all over you...Ill walk all over

Roaming roaming staying alive
So gimme the stage, I'm gonna steal the show
Leave off the drapes and turn off the light
Tonight is gonna be the night

I'm gonna walk all over you
I'm gonna walk all over you
Do anything you want me to
I'm gonna walk all over
You ow.
I'm gonna walk all over you

================================================
4. TOUCH TOO MUCH
================================================

Rest through Intro, Verse 1

Pre Chorus 1:

   C                                   A
G|-----------------|-----------------|-----------------|-----------------|
D|-----------------|-----------------|-----------------|-----------------|
A|-3---------3---3-|-----------------|-----------------|-----------------|
E|-----------------|-----------------|-5---------5---5-|-----------------|

   C                                   D
G|-----------------|-----------------|-----------------|-----------------|
D|-----------------|-----------------|-----------------|-----------------|
A|-3---3-----3---3-|-------3-3---3---|-5---5-----5---5-|-5-----5-5---5---|
E|-----------------|-----------------|-----------------|-----------------|

Chorus 1:

   E             G                     A             C     B A D
G|-----------------|-----------------|-----------------|-----------------|
D|-----------------|-----------------|-----------------|-----------------|
A|-7\--------------|-----------------|---------------3-|---2-0-5---5-5---|
E|-----0-0-----0-3-|---3-3-3-3-3-3---|-5---5-5-5-5-5---|-----------------|

   E             G                     A             C     B A D
G|-----------------|-----------------|-----------------|-----------------|
D|-----------------|-----------------|-----------------|-----------------|
A|-----------------|-----------------|---------------3-|---2-0-5---5-5---|
E|-0-0-0-0-0-0-0-3-|---3-3-3-3-3-3-3-|-5-5-5-5-5-5-5---|-----------------|

   E             G                     A             C         D
G|-----------------|-----------------|-----------------|-----------------|
D|-2-2-2-2-2-0-2---|-----------------|-----------------|-----------------|
A|-----------------|-----------------|---------------3-|---3-3-5---5-5-6-|
E|---------------3-|---3-3---3-3-3-3-|-5-5-5-5-5-5-5---|-----------------|

   E             G                     A                 D A   D A   D A
G|-----------------|-----------------|-----------------|-----------------|
D|-----------------|-----------------|-----------------|-----------------|
A|-7\--------------|-----------------|-----------------|-5-----5-----5---|
E|-----0-0-----0-3-|-----------------|-5-5-5-5-5-5-5-5-|---5-5---5-5---5-|

   E
G|-----------------|-----------------|
D|-----------------|-----------------|
A|-----------------|-------------7\--|
E|-0---0---0---0---|-0---0---0-------|

Verse 2:

   E                 C                 A                   D       A
G|-----------------|-----------------|-----------------|-----------------|
D|-----------------|-----------------|-----------------|-----------------|
A|-----------------|-3-3-3-3-3-3-3-3-|-----------------|---5---5---------|
E|-0-0-0-0-0-0-0-0-|-----------------|-5-5-5-5-5-5-5-5-|-5---------5-----|

   E                 C                 A                   D       A
G|-----------------|-----------------|-----------------|-----------------|
D|-----------------|-----------------|-----------------|-----------------|
A|-----------------|-3-3-3-3-3-3-3-3-|-----------------|---5---5---------|
E|-0-0-0-0-0-0-0-0-|-----------------|-5-5-5-5-5-5-5-5-|-5---------5-----|

Pre Chorus 2:

   C                                   A
G|-----------------|-----------------|-----------------|-----------------|
D|-----------------|-----------------|-----------------|-----------------|
A|-3-3-3-3-3-3-3-3-|-3-3-3-3-3-3-3-3-|-----------------|-----------------|
E|-----------------|-----------------|-5-5-5-5-5-5-5-5-|-5-5-5-5-5-5-5-5-|

   C                                   D
G|-----------------|-----------------|-----------------|-----------------|
D|-----------------|-----------------|-----------------|-----------------|
A|-3-3-3-3-3-3-3-3-|-3-3-3-3-3-3-3-3-|-5-5-5-5-5-5-5-5-|-5-5-5-5-5-5-5-5-|
E|-----------------|-----------------|-----------------|-----------------|

Chorus 2:

   E             G                     A             C     B A D
G|-----------------|-----------------|-----------------|-----------------|
D|-----------------|-----------------|-----------------|-----------------|
A|-7\--------------|-----------------|---------------3-|---2-0-5---5-5---|
E|-----0-0-----0-3-|---3-3-3-3-3-3---|-5---5-5-5-5-5---|-----------------|

   E             G                     A             C     B A D
G|-----------------|-----------------|-----------------|-----------------|
D|-----------------|-----------------|-----------------|-----------------|
A|-----------------|-----------------|---------------3-|---2-0-5---5-5-6-|
E|-0-0-0-0-0-0-0-3-|---3-3-3-3-3-3-3-|-5-5-5-5-5-5-5---|-----------------|

   E             G                     A             C         D
G|-----------------|-----------------|-----------------|-----------------|
D|-----------------|-----------------|-----------------|-----------------|
A|-7---------------|-----------------|---------------3-|---3-3-5---4-5-6-|
E|---0-0-0-0-0-0-3-|---3-3-3-3-3-3-3-|-5-5-5-5-5-5-5---|-----------------|

   E             G                     E
G|-----------------|-----------------|-----------------|-----------------|
D|-----------------|-----------------|-----------------|-----------------|
A|-7\--------------|-----------------|-----------------|-----------------|
E|-----0-0-----0-3-|-----------------|-0-0-0-0-0-0-0-0-|-0-0-0-0-0-0-0-0-|

Guitar Solo:

   C                                   A
G|-----------------|-----------------|-----------------|-----------------|
D|-----------------|-----------------|-----------------|-----------------|
A|-3-3-3-3-3-3-3-3-|-3-3-3-3-3-3-3-3-|-----------------|-----------------|
E|-----------------|-----------------|-5-5-5-5-5-5-5-5-|-5-5-5-5-5-5-5-5-|

   C                                   D
G|-----------------|-----------------|-----------------|-----------------|
D|-----------------|-----------------|-----------------|-----------------|
A|-3-3-3-3-3-3-3-3-|-3-3-3-3-3-3-3-3-|-5-5-5-5-5-5-5-5-|-5-5-5-5-5-5-5-5-|
E|-----------------|-----------------|-----------------|-----------------|

Bridge:

   E     G     A            G  B       C     A     E
G|-----------------|-----------------|-----------------|-----------------|
D|-----------------|-----------------|-----------------|-----------------|
A|-----------------|-----0---0-2-----|-3-----0---------|-----------------|
E|-0-----3-----5---|-------3---------|-------------0---|-----------------|

Interlude:

   E             G                     A             D
G|-----------------|-----------------|-----------------|-----------------|
D|-----------------|-----------------|-----------------|-----------------|
A|-----------------|-----------------|---------------5-|-5-5-5-5-5-5-5-5-|
E|-0-0-0-0-0-0-0-3-|-3-3-3-3-3-3-3-3-|-5-5-5-5-5-5-5---|-----------------|

   E             G                     A             D
G|-----------------|-----------------|-----------------|-----------------|
D|-----------------|-----------------|-----------------|-----------------|
A|-----------------|-----------------|---------------5-|-5-5-5-5-5-5-5-5-|
E|-0-0-0-0-0-0-0-3-|-3-3-3-3-3-3-3-3-|-5-5-5-5-5-5-5---|-----------------|

   E             G                     A             D
G|-----------------|-----------------|-----------------|-----------------|
D|-----------------|-----------------|-----------------|-----------------|
A|-----------------|-----------------|---------------5-|-5-5-5-5-5-5-5-5-|
E|-0-0-0-0-0-0-0-3-|-3-3-3-3-3-3-3-3-|-5-5-5-5-5-5-5---|-----------------|

   E             G                     A             D
G|-----------------|-----------------|-----------------|-----------------|
D|-----------------|-----------------|-----------------|-----------------|
A|-----------------|-----------------|---------------5-|-5-5-5-5-5-5-5-5-|
E|-0-0-0-0-0-0-0-3-|-3-3-3-3-3-3-3-3-|-5-5-5-5-5-5-5---|-----------------|

Chorus 3:

   E             G                     A             C     B A D
G|-----------------|-----------------|-----------------|-----------------|
D|-----------------|-----------------|-----------------|-----------------|
A|-7\--------------|-----------------|---------------3-|---2-0-5---5-5---|
E|-----0-0-----0-3-|---3-3-3-3-3-3---|-5---5-5-5-5-5---|-----------------|

   E             G                     A             C     B A D
G|-----------------|-----------------|-----------------|-----------------|
D|-----------------|-----------------|-----------------|-----------------|
A|-----------------|-----------------|---------------3-|---2-0-5---5-5---|
E|-0-0-0-0-0-0-0-3-|---3-3-3-3-3-3-3-|-5-5-5-5-5-5-5---|-----------------|

   E             G                     A             C     B A D
G|-----------------|-----------------|-----------------|-----------------|
D|-----------------|-----------------|-----------------|-----------------|
A|-----------------|-----------------|---------------3-|---2-0-5---5-5---|
E|-0-0-0-0-0-0-0-3-|---3-3-3-3-3-3-3-|-5-5-5-5-5-5-5---|-----------------|

   E             G                     A             C     B A D
G|-----------------|-----------------|-----------------|-----------------|
D|-----------------|-----------------|-----------------|-----------------|
A|-----------------|-----------------|---------------3-|---2-0-5---5-5---|
E|-0-0-0-0-0-0-0-3-|---3-3-3-3-3-3-3-|-5-5-5-5-5-5-5---|-----------------|

Outro Guitar Solo:

   E             G                     A             C     B A D
G|-----------------|-----------------|-----------------|-----------------|
D|-2-2-2-0-2-2-0---|-----------------|-----------------|-----------------|
A|-----------------|-----------------|---------------3-|---2-0-5---3-2---|
E|---------------3-|---3-3-3-3-3-3-3-|-5-5-5-5-5-5-5---|-----------------|

   E             G                     A             C     B A D
G|-----------------|-----------------|-----------------|-----------------|
D|-----------------|-----------------|-----------------|---------------1-|
A|-----------------|-----------------|---------------3-|---2-0-5---5-5---|
E|-0-0-0-0-0-0-0-3-|---3-3-3-3-3-3-3-|-5-5-5-5-5-5-5---|-----------------|

   E             G                     A             C     B A D
G|-----------------|-----------------|-----------------|-----------------|
D|-2-2-2-2-2-2-----|-----------------|-----------------|-----------------|
A|-----------------|-----------4-5-x-|---------------3-|---2-0-5---5-5---|
E|-------------0-3-|---3-3-3-3-------|-5-5-5-5-5-5-5---|-----------------|

   E             G                      A                D A   D A   D A
G|-----------------|-----------------|-----------------|-----------------|
D|-----------------|-----------------|-----------------|-----------------|
A|-----------------|-----------------|-----------------|-5-----5-----5---|
E|-0---0-0-0-0-0-3-|---3-3-3-3-3-3-3-|-5-5-5-5-5-5-5-5-|---5-5---5-5---5-|

   A                 D A   D A   D A                     D A   D A   D A
G|-----------------|-----------------|-----------------|-----------------|
D|-----------------|-----------------|-----------------|-----------------|
A|-----------------|-5-----5-----5---|-----------------|-5-----5-----5---|
E|-5-5-5-5-5-5-5-5-|---5-5---5-5---5-|-5-5-5-5-5-5-5-5-|---5-5---5-5---5-|

   E
G|-----------------|-----------------|
D|-----------------|-----------------|
A|-----------------|-----------------|
E|-0---------------|-----------------|


It was one of those nights
When you turned out the lights
And everything comes into view
She was taking her time
I was losing my mind
There was nothing that she wouldn't do
It wasn't the first
It wasn't the last
She knew we was making love
I was so satisfied
Deep down inside
Like a hand in a velvet glove
CHORUS:
Seems like a touch, a touch too much
Seems like a touch, a touch too much
Too much for my body, too much for my brain
This damn woman's gonna drive me insane
She's got a touch, a touch too much
She had the face of an angel
Smiling with sin
The body of Venus with arms
Dealing with danger
Stroking my skin
Like a thunder and lightening storm
It wasn't the first
It wasn't the last
It wasn't that she didn't care
She wanted it hard
And wanted it fast
She liked it done medium rare
CHORUS
Seems like a touch, touch too much
You know it's much too much, much too much
I really want to feel you touch too much
Girl you know you're giving me much too much
Seems like a touch
Just a dirty little touch
I really need your touch
Cause you're much too much too much too much
Seems like a touch, a touch too much
Seems like a touch, a touch too much

================================================
5. BEATING AROUND THE BUSH
================================================
Tune down 3/4 step (From standard)

Intro: (First bar starts at 0:15, listen to Phil on the hi hat)

             E                   G E   G E   E   E                   G E
G|-----------------|-----------------|-----------------|-----------------|
D|-----------------|-----0-----------|-----------------|-----0-----------|
A|---------------0-|-1-2---2-1-0-----|---------------0-|-1-2---2-1-0-----|
E|-----------0-3---|-------------3-0-|-3-0---0---0-3---|-------------3-0-|

   E          E                  G E   G E   E   E                   G E
G|-----------------|-----------------|-----------------|-----------------|
D|-----------------|-----0-----------|-----------------|-----0-----------|
A|---------------0-|-1-2---2-1-0-----|---------------0-|-1-2---2-1-0-----|
E|-0---------0-3---|-------------3-0-|-3-0---0---0-3---|-------------3-0-|

Verse 1:

                 E                                   D       A       G E
G|-----------------|-----------------|-----------------|-----------------|
D|-----------------|-----------------|-----------------|-----------------|
A|-----------------|-----------------|---------------5-|-----------------|
E|-0-------------0-|-----------------|-----------------|-----5---5---3-0-|

   G E   E       E                                   D       A       G E
G|-----------------|-----------------|-----------------|-----------------|
D|-----------------|-----------------|-----------------|-----------------|
A|-----------------|-----------------|---------------5-|-----------------|
E|-3-0---0---0-0-0-|-----------------|-----------------|-----5---5---3-0-|

   G E   E       E                                   D       A       G E
G|-----------------|-----------------|-----------------|-----------------|
D|-----------------|-----------------|-----------------|-----------------|
A|-----------------|-----------------|---------------5-|-----------------|
E|-3-0---0---0-0-0-|-----------------|-----------------|-----5---5---3-0-|

   G E   E       E                                   D       A       G E
G|-----------------|-----------------|-----------------|-----------------|
D|-----------------|-----------------|-----------------|-----------------|
A|-----------------|-----------------|---------------5-|-----------------|
E|-3-0---0---0-0-0-|-----------------|-----------------|-----5---5---3-0-|

   G E   E       E                                   D       A       G E
G|-----------------|-----------------|-----------------|-----------------|
D|-----------------|-----------------|-----------------|-----------------|
A|-----------------|-----------------|---------------5-|-----------------|
E|-3-0---0---0-0-0-|-----------------|-----------------|-----5---5---3-0-|

   G E   E       E                                   D       A       G E
G|-----------------|-----------------|-----------------|-----------------|
D|-----------------|-----------------|-----------------|-----------------|
A|-----------------|-----------------|---------------5-|-----------------|
E|-3-0---0---0-0-0-|-----------------|-----------------|-----5---5---3-0-|

   G E   E       E                                   D       A       G E
G|-----------------|-----------------|-----------------|-----------------|
D|-----------------|-----------------|-----------------|-----------------|
A|-----------------|-----------------|---------------5-|-----------------|
E|-3-0---0---0-0-0-|-----------------|-----------------|-----5---5---3-0-|

   G E   E       E                                   D       A       G E
G|-----------------|-----------------|-----------------|-----------------|
D|-----------------|-----------------|-----------------|-----------------|
A|-----------------|-----------------|---------------5-|-----------------|
E|-3-0---0---0-0-0-|-----------------|-----------------|-----5---5---3-0-|

Chorus 1: (First bar is contined from verse)

   G E   E           E                                   D
G|-----------------|-----------------|-----------------|-----------------|
D|-----------------|-----------------|-----------------|-----------------|
A|-----------------|-----------------|-----------------|-5-----5-----5---|
E|-3-0---0---0-0-0-|-0-----0-----0---|-----------------|-----------------|

                     A
G|-----------------|-----------------|-----------------|-----------------|
D|-----------------|-----------------|-----------------|-----------------|
A|-----------------|-----------------|-----------------|-----------------|
E|-----------------|-5-----5-----5---|-----------------|-----------------|

Verse 2:

                 E                                   D       A       G E
G|-----------------|-----------------|-----------------|-----------------|
D|-----------------|-----------------|-----------------|-----------------|
A|-----------------|-----------------|---------------5-|-----------------|
E|---------------0-|-----------------|-----------------|-----5---5---3-0-|

   G E   E       E                                   D       A       G E
G|-----------------|-----------------|-----------------|-----------------|
D|-----------------|-----------------|-----------------|-----------------|
A|-----------------|-----------------|---------------5-|-----------------|
E|-3-0---0---0-0-0-|-----------------|-----------------|-----5---5---3-0-|

   G E   E       E                                   D       A       G E
G|-----------------|-----------------|-----------------|-----------------|
D|-----------------|-----------------|-----------------|-----------------|
A|-----------------|-----------------|---------------5-|-----------------|
E|-3-0---0---0-0-0-|-----------------|-----------------|-----5---5---3-0-|

   G E   E       E                                   D       A       G E
G|-----------------|-----------------|-----------------|-----------------|
D|-----------------|-----------------|-----------------|-----------------|
A|-----------------|-----------------|---------------5-|-----------------|
E|-3-0---0---0-0-0-|-----------------|-----------------|-----5---5---3-0-|

   G E   E       E                                   D       A       G E
G|-----------------|-----------------|-----------------|-----------------|
D|-----------------|-----------------|-----------------|-----------------|
A|-----------------|-----------------|---------------5-|-----------------|
E|-3-0---0---0-0-0-|-----------------|-----------------|-----5---5---3-0-|

   G E   E       E                                   D       A       G E
G|-----------------|-----------------|-----------------|-----------------|
D|-----------------|-----------------|-----------------|-----------------|
A|-----------------|-----------------|---------------5-|-----------------|
E|-3-0---0---0-0-0-|-----------------|-----------------|-----5---5---3-0-|

   G E   E       E                                   D       A       G E
G|-----------------|-----------------|-----------------|-----------------|
D|-----------------|-----------------|-----------------|-----------------|
A|-----------------|-----------------|---------------5-|-----------------|
E|-3-0---0---0-0-0-|-----------------|-----------------|-----5---5---3-0-|

   G E   E       E                                   D       A       G E
G|-----------------|-----------------|-----------------|-----------------|
D|-----------------|-----------------|-----------------|-----------------|
A|-----------------|-----------------|---------------5-|-----------------|
E|-3-0---0---0-0-0-|-----------------|-----------------|-----5---5---3-0-|

Chorus 2: (First bar is contined from verse)

   G E   E           E                                   D
G|-----------------|-----------------|-----------------|-----------------|
D|-----------------|-----------------|-----------------|-----------------|
A|-----------------|-----------------|-------------3-4-|-5-----5-----5---|
E|-3-0---0---0-0-0-|-0-----0-----0---|-----------------|-----------------|

                     A
G|-----------------|-----------------|-----------------|-----------------|
D|-----------------|-----------------|-----------------|-----------------|
A|-----------------|-----------------|-----------------|-----------------|
E|-----------------|-5-----5-----5---|-----------------|-----------------|

G|-----------------|
D|-----------------|
A|-----------------|
E|-----------------|

Guitar Solo:

                 A                             D     A
G|-----------------|-----------------|-----------------|-----------------|
D|-----------------|-----------------|-----------------|-----------------|
A|-----------------|-----------------|---------5-------|-----------------|
E|---------------5-|-----5---5---5---|-5---5---------5-|-----5---5---5---|

   A                                           D     A
G|-----------------|-----------------|-----------------|-----------------|
D|-----------------|-----------------|-----------------|-----------------|
A|-----------------|-----------------|---------5-------|-----------------|
E|-5---5---5---5-5-|-----5---5---5---|-5---5---------5-|-----5---5---5---|

   A             B                             E     B
G|-----------------|-----------------|-----------------|-----------------|
D|-----------------|-----------------|-----------------|-----------------|
A|-----------------|-----------------|---------7-------|-----------------|
E|-5---5---5---5-7-|-----7---7---7---|-7---7---------7-|-----7---7---7---|

   B                                           E     B
G|-----------------|-----------------|-----------------|-----------------|
D|-----------------|-----------------|-----------------|-----------------|
A|-----------------|-----------------|---------7-------|-----------------|
E|-7---7---7---7-7-|-----7---7---7---|-7---7---------7-|-----7---7---7---|

   B
G|-----------------|-----------------|-----------------|-----------------|
D|-----------------|-----------------|-----------------|-----------------|
A|-----------------|-----------------|-----------------|-----------------|
E|-7---7---7---7-6-|-7-----7-----7---|-7---7---7---7---|-7-----7-----7---|

   B                                                     D
G|-----------------|-----------------|-----------------|-----------------|
D|-----------------|-----------------|-----------------|-----------------|
A|-----------------|-----------------|-----------------|-5-----5-----5---|
E|-7---7---7---7---|-7-----7-----7---|-7---7---7---7---|-----------------|


G|-----------------|-----------------|-----------------|-----------------|
D|-----------------|-----------------|-----------------|-----------------|
A|-5---5---5---5---|-----------------|-----------------|-----------------|
E|-----------------|-0---------------|-----------------|-----------------|

Verse 3:

                 E                                   D       A       G E
G|-----------------|-----------------|-----------------|-----------------|
D|-----------------|-----------------|-----------------|-----------------|
A|-----------------|-----------------|---------------5-|-----------------|
E|---------------0-|-----------------|-----------------|-----5---5---3-0-|

   G E   E       E                                   D       A       G E
G|-----------------|-----------------|-----------------|-----------------|
D|-----------------|-----------------|-----------------|-----------------|
A|-----------------|-----------------|---------------5-|-----------------|
E|-3-0---0---0-0-0-|-----------------|-----------------|-----5---5---3-0-|

   G E   E       E                                   D       A       G E
G|-----------------|-----------------|-----------------|-----------------|
D|-----------------|-----------------|-----------------|-----------------|
A|-----------------|-----------------|---------------5-|-----------------|
E|-3-0---0---0-0-0-|-----------------|-----------------|-----5---5---3-0-|

   G E   E       E                                   D       A       G E
G|-----------------|-----------------|-----------------|-----------------|
D|-----------------|-----------------|-----------------|-----------------|
A|-----------------|-----------------|---------------5-|-----------------|
E|-3-0---0---0-0-0-|-----------------|-----------------|-----5---5---3-0-|

   G E   E       E                                   D       A       G E
G|-----------------|-----------------|-----------------|-----------------|
D|-----------------|-----------------|-----------------|-----------------|
A|-----------------|-----------------|---------------5-|-----------------|
E|-3-0---0---0-0-0-|-----------------|-----------------|-----5---5---3-0-|

   G E   E       E                                   D       A       G E
G|-----------------|-----------------|-----------------|-----------------|
D|-----------------|-----------------|-----------------|-----------------|
A|-----------------|-----------------|---------------5-|-----------------|
E|-3-0---0---0-0-0-|-----------------|-----------------|-----5---5---3-0-|

   G E   E       E                                   D       A       G E
G|-----------------|-----------------|-----------------|-----------------|
D|-----------------|-----------------|-----------------|-----------------|
A|-----------------|-----------------|---------------5-|-----------------|
E|-3-0---0---0-0-0-|-----------------|-----------------|-----5---5---3-0-|

   G E   E       E                                   D       A       G E
G|-----------------|-----------------|-----------------|-----------------|
D|-----------------|-----------------|-----------------|-----------------|
A|-----------------|-----------------|---------------5-|-----------------|
E|-3-0---0---0-0-0-|-----------------|-----------------|-----5---5---3-0-|

Chorus 3: (First bar is contined from verse)

   G E   E           E                                   D
G|-----------------|-----------------|-----------------|-----------------|
D|-----------------|-----------------|-----------------|-----------------|
A|-----------------|-----------------|-----------------|-5-----5-----5---|
E|-3-0---0---0-0-0-|-0-----0-----0---|-----------------|-----------------|

                     A
G|-----------------|-----------------|-----------------|-----------------|
D|-----------------|-----------------|-----------------|-----------------|
A|-----------------|-----------------|-----------------|-----------------|
E|-----------------|-5-----5-----5---|-----------------|-----------------|

Outro:

               A                             D     A
G|-----------------|-----------------|-----------------|-----------------|
D|-----------------|-----------------|-----------------|-----------------|
A|-----------------|-----------------|---------5-------|-----------------|
E|---------------5-|-----5---5---5---|-5---5---------5-|-----5---5---5---|

   A                                           D     A
G|-----------------|-----------------|-----------------|-----------------|
D|-----------------|-----------------|-----------------|-----------------|
A|-----------------|-----------------|---------5-------|-----------------|
E|-5---5---5---5-5-|-----5---5---5---|-5---5---------5-|-----5---5---5---|

   A             B                             E     B
G|-----------------|-----------------|-----------------|-----------------|
D|-----------------|-----------------|-----------------|-----------------|
A|-----------------|-----------------|---------7-------|-----------------|
E|-5---5---5---5-7-|-----7---7---7---|-7---7---------7-|-----7---7---7---|

   B                                           E     B
G|-----------------|-----------------|-----------------|-----------------|
D|-----------------|-----------------|-----------------|-----------------|
A|-----------------|-----------------|-----------------|-----------------|
E|-7---7---7---7-7-|-----7---7---7---|-7---7---0-----7-|-----7---7---7---|

   B
G|-----------------|-----------------|-----------------|-----------------|
D|-----------------|-----------------|-----------------|-----------------|
A|-----------------|-----------------|-----------------|-----------------|
E|-7---7---7---7-6-|-7-----7-----7---|-7---7---7---7---|-7-----7-----7---|

   B                                                     D
G|-----------------|-----------------|-----------------|-----------------|
D|-----------------|-----------------|-----------------|-----------------|
A|-----------------|-----------------|-----------------|-5-----5-----5---|
E|-7---7---7---7---|-7-----7-----7---|-7---7---7---7---|-----------------|

                     E   Free Time for rest of outro
G|-----------------|-----------------|-----------------|-----------------|
D|-----------------|-----------------|-----------------|-----------------|
A|-----------------|-----------------|-----------------|-----------------|
E|-----------------|-0---000000000000|00000000000000000|00000000000000000|

   E
G|-----------------|-----------------|-----------------|-----------------|
D|-----------------|-----------------|-----------------|-----------------|­
A|-----------------|-----------------|-----------------|-----------------|
E|00000000000000000|00000000000000000|-0---0---0---0---|-0-0-0-0-0-0-0-0-|

G|-----------------|-----------------|-----------------|-----------------|
D|-----------------|-----------------|-----------------|-----------------|
A|-----------------|55555557777777777|77777777777777777|-------------7\--|
E|00000222223333333|-----------------|-----------------|-----------------|

Smilin' face and laughin' eyes
But ya can't keep on tellin' me all those lies
How'd you expect me to believe
Honey I ain't that naive
Baby I got my eye on you
Cause you do all the things I want you to
Stop your cryin' and dry your tears
I ain't that wet behind the ears

You can throw me lefts, you can throw me rights
But where was you last night
Beatin' around the bush

Wish I knew what was on your mind
Why you bein' so unkind
Remember those nights we spent alone
Talkin' on the telephone
Thoughts of you goin' through my brain
You told me that you felt the same
You said that you loved me too
But tell me who was there with you

I was talkin' birds, and you was talkin' bees
And was he down on his knees
Beatin' around the bush

You're the meanest woman I've ever known
Sticks and stones won't break my bones
I know what you're looking for
You've eaten your cake you want some more
I'm gonna give you just a one more change
Try to save our romance
I've done everything I'm gonna do
The rest is up to you

And you can chew it up, you can spit it out
You can let it all hang out
Beatin' around the bush

And you can chew it up, you can spit it out
You can let it all hang out
Beatin' around the bush

================================================
6. SHOT DOWN IN FLAMES
================================================

Intro: (0:15)

   A                 D                 A                 D
G|-----------------|-----------------|-----------------|-----------------|
D|-----------------|-----------------|-----------------|-----------------|
A|---------------3-|-5-5-5-5-5-5-5-5-|---------------3-|-5-5-5-5-5-5-5-5-|
E|-5-5-5-5-5-5-5---|-----------------|-5-5-5-5-5-5-5---|-----------------|

Verse 1:

   A                 D                 A                 D
G|-----------------|-----------------|-----------------|-----------------|
D|-----------------|-----------------|-----------------|-----------------|
A|---------------3-|-5-5-5-5-5-5-5-5-|---------------3-|-5-5-5-5-5-5-5-5-|
E|-5-5-5-5-5-5-5---|-----------------|-5-5-5-5-5-5-5---|-----------------|

   A                 D                 A                 D
G|-----------------|-----------------|-----------------|-----------------|
D|-----------------|-----------------|-----------------|-----------------|
A|---------------3-|-5-5-5-5-5-5-5-5-|---------------3-|-5-5-5-5-5-5-5-5-|
E|-5-5-5-5-5-5-5---|-----------------|-5-5-5-5-5-5-5---|-----------------|

   A                 D                 A                 D
G|-----------------|-----------------|-----------------|-----------------|
D|-----------------|-----------------|-----------------|-----------------|
A|---------------3-|-5-5-5-5-5-5-5-5-|---------------3-|-5-5-5-5-5-5-5-5-|
E|-5-5-5-5-5-5-5---|-----------------|-5-5-5-5-5-5-5---|-----------------|

   A                 D                 A                 D
G|-----------------|-----------------|-----------------|-----------------|
D|-----------------|-----------------|-----------------|-----------------|
A|---------------3-|-5-5-5-5-5-5-5-5-|-----------------|-5---------------|
E|-5-5-5-5-5-5-5---|-----------------|-5-5-5-5-5-5-5-x-|-----------------|


G|-----------------|
D|-----------------|
A|-----------------|
E|-----------------|

Chorus 1:

   A     G           D     C           A     G           D     C
G|-----------------|-----------------|-----------------|-----------------|
D|-----------------|-----------------|-----------------|-----------------|
A|-----------------|-5---5-3---------|-----------------|-5---5-3---------|
E|-5-5-5-3---3-3-3-|-------------3-4-|-5---5-3-------3-|-----------0-2-0-|

   A     G           D     C           A     G           D
G|-----------------|-----------------|-----------------|-----------------|
D|-----------------|-----------------|-----------------|-----------------|
A|---------------4-|-5---5-3---------|-----------------|-5-5-5-5-5-5-5-5-|
E|-5-5-5-3---3-3---|-------------3-4-|-5---5-3-------3-|-----------------|

   D
G|-----------------|
D|-----------------|
A|-5-5-5-5-5-5-5-5-|
E|-----------------|

Verse 2:

   A                 D                 A                 D
G|-----------------|-----------------|-----------------|-----------------|
D|-----------------|-----------------|-----------------|-----------------|
A|---------------3-|-5-5-5-5-5-5-5-5-|---------------3-|-5-5-5-5-5-5-5-5-|
E|-5-5-5-5-5-5-5---|-----------------|-5-5-5-5-5-5-5---|-----------------|

   A                 D                 A                 D
G|-----------------|-----------------|-----------------|-----------------|
D|-----------------|-----------------|-----------------|-----------------|
A|---------------3-|-5-5-5-5-5-5-5-5-|---------------3-|-5-5-5-5-5-5-5-5-|
E|-5-5-5-5-5-5-5---|-----------------|-5-5-5-5-5-5-5---|-----------------|

   A                 D                 A                 D
G|-----------------|-----------------|-----------------|-----------------|
D|-----------------|-----------------|-----------------|-----------------|
A|---------------3-|-5-5-5-5-5-5-5-5-|---------------3-|-5-5-5-5-5-5-5-5-|
E|-5-5-5-5-5-5-5---|-----------------|-5-5-5-5-5-5-5---|-----------------|

   A                 D                 A                 D
G|-----------------|-----------------|-----------------|-----------------|
D|-----------------|-----------------|-----------------|-----------------|
A|---------------3-|-5-5-5-5-5-5-5-5-|-----------------|-5-5-5-5-5-5-5-5-|
E|-5-5-5-5-5-5-5---|-----------------|-5-5-5-5-5-5-5-3-|-----------------|

   D
G|-----------------|
D|-----------------|
A|-5-5-5-5-5---5---|
E|-----------------|

Chorus 2:

   A     G           D     C           A     G           D     C
G|-----------------|-----------------|-----------------|-----------------|
D|-----------------|-----------------|-----------------|-----------------|
A|---------------4-|-5-x-5-3---------|-----------------|-5-----3---------|
E|-5---5-3---3-3---|-----------0-2-3-|-5---5-3---3-3-x-|---3-5-----0-2-0-|

   A     G           D     C           A     G           D
G|-----------------|-----------------|-----------------|-----------------|
D|-----------------|-----------------|-----------------|-----------------|
A|-------------3-4-|-5---5-3---3-----|-----------------|-5-5-5-5-5-5-5-5-|
E|-5---5-3---3-----|-------------3-4-|-5---5-3---3-3-0-|-----------------|

   D
G|-----------------|-----------------|-------------7\--|
D|-----------------|-----------------|-----------7-----|
A|-5-5-5-5-5-5-5-5-|-5-5-5-5-5-5-5-5-|-5-5-5-5-5-------|
E|-----------------|-----------------|-----------------|

Guitar Solo:

   A                 D                 A                 D
G|-----------------|-----------------|-----------------|-----------------|
D|-----------------|-----------------|-----------------|-----------------|
A|-----------------|-5-5-5-5-5-5-5-5-|-----------------|-5-5-5-5-5-5-5-5-|
E|-5-5-5-5-5-5-5-5-|-----------------|-5-5-5-5-5-5-5-5-|-----------------|

   A                 D                 A                 D
G|-----------------|-----------------|-----------------|-----------------|
D|-----------------|-----------------|-----------------|-----------------|
A|-----------------|-5-5-5-5-5-5-5-5-|-----------------|-5-5-5-5-5-5-5-5-|
E|-5-5-5-5-5-5-5-5-|-----------------|-5-5-5-5-5-5-5-5-|-----------------|

   A                 D                 A                 D
G|-----------------|-----------------|-----------------|-----------------|
D|-----------------|-----------------|-----------------|-----------------|
A|---------------3-|-5-5-5-5-5-5-5-5-|---------------3-|-5-5-5-5-5-5-5-5-|
E|-5-5-5-5-5-5-5---|-----------------|-5-5-5-5-5-5-5---|-----------------|

   A                 D                 A                D
G|-----------------|-----------------|-----------------|-----------------|
D|-----------------|-----------------|-----------------|-----------------|
A|---------------3-|-5-5-5-5-5-5-5-5-|-----------------|-5-5-5-5-5-5-5-5-|
E|-5-5-5-5-5-5-5---|-----------------|-5-5-5-5-5-5-5-5-|-----------------|

   D
G|-----------------|-----------------|-------------7\--|
D|-----------------|-----------------|-----------------|
A|-5-5-5-5-5-5-5-5-|-5-5-5-5-5-5-5-5-|-5-5-5-5-5-0-----|
E|-----------------|-----------------|-----------------|

Chorus 3:

   A     G           D     C           A     G           D     C
G|-----------------|-----------------|-----------------|-----------------|
D|-----------------|-----------------|-----------------|-----------------|
A|---------------4-|-5---5-3---------|---------------4-|-5---5-3---3-----|
E|-5---5-3---3-3---|-----------0-2-0-|-5---5-3---3-3---|-------------3-4-|


G|-----------------|-----------------|-----------------|-----------------|
D|-----------------|-----------------|-----------------|-----------------|
A|-----------------|-5---5-3---------|-----------------|-5-5-5-5-5-5-5-5-|
E|-5---5-3---3-3-3-|-----------0-2-0-|-5---5-3---3-3-3-|-----------------|

   D
G|-----------------|
D|-----------------|
A|-5-5-5-5-5-5-5-5-|
E|-----------------|

Outro:

   A     G           D     C           A     G           D     C
G|-----------------|-----------------|-----------------|-----------------|
D|-----------------|-----------------|-----------------|-----------------|
A|-----------------|-5-5-5-3-3-3-3-3-|-----------------|-5-5-5-3-3-3-3-3-|
E|-5-5-5-3-3-3-3-3-|-----------------|-5-5-5-3-3-3-3-3-|-----------------|

   A     G           D     C           A   G             D
G|-----------------|-----------------|-----------------|-----------------|
D|-----------------|-----------------|-----------------|-----------------|
A|-----------------|-5-5-5-3-3-3-3-3-|-----------------|-5-5-5-5-5-5-5-5-|
E|-5-5-5-3-3-3-3-3-|-----------------|-5-5-3-3-3-3-3-3-|-----------------|

   D                 D                             A     D
G|-----------------|/7-7-7-7-7-7-7-7-|-7-7-7-7-7-------|-----------------|
D|-----------------|-----------------|-------------7\--|-----------------|
A|-5-5-5-5-5-5-5-5-|-----------------|-----------------|-5---------------|
E|-----------------|-----------------|-----------------|-----------------|


Out on the town
Lookin' for a woman
Gonna gimme good love
Anybody wanna hand off me
And give me plenty of
She was standin' alone
Over by the juke box
Like she'd some thing to sell
I said baby what's the goin' price
She told me to go to hell

Shot down in flames
Shot down in flames
Ain't it a shame
To be shot down in flames

Singles bar
Got my eye on a honey
Hangin' out everywhere
She might be straight
She might want my money
I really don't care, no
Said baby
Drivin' me crazy
Laid it right on the line
When a guy with a chip on his shoulder said
Toss off buddy she's mine
Shot down in flames
Shot down in flames
Ain't it a shame
To be shot down in flames

Hey you
Angus
Shoot me, shoot
That's nice

Shot down in flames
Shot down in flames
Ain't it a shame
To be shot down in flames
Shoot
Shot down in flames
Shot down in flames
Ain't it a shame
To be shot down in flames
I don't need a thing
Don't wanna be
Shot down in flames

================================================
7. GET IT HOT
================================================
Tune down 1/2 step

Intro: (0:07)

      Bb
Gb|-----------------|-----------------|-----------------|-----------------|
Db|-----------------|-----------------|-----------------|-----------------|
Ab|---2-2-2-2-2-2-2-|-2-2-2-2-2-2-2-2-|-2-2-2-2-2-2-2-2-|-2-2-2-2-2-2-2-2-|
Eb|-2---------------|-----------------|-----------------|-----------------|

Verse 1:

    Bb
Gb|-----------------|-----------------|-----------------|-----------------|
Db|-----------------|-----------------|-----------------|-----------------|
Ab|-2-2-2-2-2-2-2-2-|-2-2-2-2-2-2-2-2-|-2-2-2-2-2-2-2-2-|-2-2-2-2-2-2-2-2-|
Eb|-----------------|-----------------|-----------------|-----------------|

    Bb
Gb|-----------------|-----------------|-----------------|-----------------|
Db|-----------------|-----------------|-----------------|-----------------|
Ab|-2-2-2-2-2-2-2-2-|-2-2-2-2-2-2-2-2-|-2-2-2-2-2-2-2-2-|-2-2-0-1-2-------|
Eb|-----------------|-----------------|-----------------|-----------5-4-0-|

Pre Chorus 1:

          Ab      Bb                Eb        Ab      Bb                Eb
Gb|-----------------|-----------------|-----------------|-----------------|
Db|-----------------|-----------------|-----------------|-----------------|
Ab|---------------2-|-2-2-2-2-1h2-2---|---------------2-|---2-2-2-2-2-2---|
Eb|-0-2-4-5-5-5-5---|---------------0-|-0-2-4-5-5-5-5---|---------------0-|

          Ab      Bb                Eb       Ab       Bb
Gb|-----------------|-----------------|-----------------|-----------------|
Db|-----------------|-----------------|-----------------|-----------------|
Ab|---------------2-|-2-2-2-2-1h2-2---|---------------2-|-----------------|
Eb|-0-2-4-5-5-5-5---|---------------0-|---2-4-5---5-5---|-----------------|

Chorus 1:

    Bb
Gb|-----------------|-----------------|-----------------|-----------------|
Db|-----------------|-----------------|-----------------|-----------------|
Ab|-2-2-2-2-2-2-2-2-|-2-2-2-2-2-2-2-2-|-2-2-2-2-2-2-2-2-|-2-2-2-2-2-2-2-2-|
Eb|-----------------|-----------------|-----------------|-----------------|

    Bb                                  Eb    Ab  Eb  Bb
Gb|-----------------|-----------------|-----------------|-----------------|
Db|-----------------|-----------------|-----------------|-----------------|
Ab|-2-2-2-2-2-2-2-2-|-2-2-2-2-2-2-2---|---------------2-|-2-------------2-|
Eb|-----------------|-----------------|-0-0---5---0-----|-----------------|

Verse 2:

        Bb
Gb|-----------------|-----------------|-----------------|-----------------|
Db|-----------------|-----------------|-----------------|-----------------|
Ab|-----2-2-2-2-2-2-|-2-2-2-2-2-2-2-2-|-2-2-2-2-2-2-2-2-|-2-2-2-2-2-2-2-2-|
Eb|-----------------|-----------------|-----------------|-----------------|

    Bb
Gb|-----------------|-----------------|-----------------|-----------------|
Db|-----------------|-----------------|-----------------|-----------------|
Ab|-2-2-2-2-2-2-2-2-|-2-2-2-2-2-2-2-2-|-2-2-2-2-2-2-2-2-|-2-2-2-2-2-5-6-7-|
Eb|-----------------|-----------------|-----------------|-----------------|

Pre Chorus 2:

      F       Ab  Bb                Eb        Ab      Bb                Eb
Gb|-----------------|-----------------|-----------------|-----------------|
Db|-----------------|-----------------|-----------------|---------------2-|
Ab|-----------0-1-2-|---2-2-2-2-2-2---|---------------2-|---2-2-2-2-2-2---|
Eb|---2-4-5---------|---------------0-|---2-4-5---5-5---|-----------------|

          Ab      Bb                Eb        Ab      Bb
Gb|-----------------|-----------------|-----------------|-----------------|
Db|---2-2-----------|-----------------|-----------------|-----------------|
Ab|---------------2-|-2-2-2-2-2-2-2---|---------------2-|-----------------|
Eb|-------5---5-5---|---------------0-|-0-2-4-5---5-5---|-----------------|

Chorus 2:

    Bb
Gb|-----------------|-----------------|-----------------|-----------------|
Db|-----------------|-----------------|-----------------|-----------------|
Ab|-2-2-2-2-2-2-2-2-|-2-2-2-2-2-2-2-2-|-2-2-2-2-2-2-2-2-|-2-2-2-2-2-2-2-2-|
Eb|-----------------|-----------------|-----------------|-----------------|

    Bb                                  Eb    Ab  Eb  Bb
Gb|-----------------|-----------------|-----------------|-----------------|
Db|-----------------|-----------------|-----------------|-----------------|
Ab|-2-2-2-2-2-2-2-2-|-2-2-2-2-2-2-2-2-|---------------2-|-2---------------|
Eb|-----------------|-----------------|-0-0---5---0-----|-----------------|

Guitar Solo:

    Eb    Ab      Bb                Eb        Ab      Bb
Gb|-----------------|-----------------|-----------------|-----------------|
Db|-----------------|-----------------|-----------------|-----------------|
Ab|---------------2-|---2-2-2-1h2-2---|---------------2-|-2-2-1-2-2-0-----|
Eb|-0-2-4-5---5-5---|---------------0-|---2-4-5---5-5---|-------------4-0-|

    Eb    Ab      Bb                Eb        Ab      Bb
Gb|-----------------|-----------------|-----------------|-----------------|
Db|-----------------|-----------------|-----------------|-----------------|
Ab|---------------2-|---2-2-2-1h2-2---|---------------2-|-----------------|
Eb|-0-2-4-5---5-5---|---------------0-|---2-4-5--5-5----|-----------------|

Chorus 3:

    Bb
Gb|-----------------|-----------------|-----------------|-----------------|
Db|-----------------|-----------------|-----------------|-----------------|
Ab|-2-2-2-2-2-2-2-2-|-2-2-2-2-2-2-2-2-|-2-2-2-2-2-2-2-2-|-2-2-2-2-2-2-2-2-|
Eb|-----------------|-----------------|-----------------|-----------------|

    Bb
Gb|-----------------|-----------------|-----------------|-----------------|
Db|-----------------|-----------------|-----------------|-----------------|
Ab|-2-2-2-2-2-2-2-2-|-2-2-2-2-2-2-2-2-|-2-2-2-2-2-2-2-2-|-2-2-2-2-2-2-0-1-|
Eb|-----------------|-----------------|-----------------|-----------------|

    Bb
Gb|-----------------|-----------------|-----------------|-----------------|
Db|-----------------|-----------------|-----------------|-----------------|
Ab|-2-2-2-2-2-2-2-2-|-2-2-2-2-2-2-2-2-|-2-2-2-2-2-2-2-2-|-2-2-2-2-2-2-2-2-|
Eb|-----------------|-----------------|-----------------|-----------------|

    Bb                                  Eb    Ab  Eb  Bb
Gb|-----------------|-----------------|-----------------|-----------------|
Db|-----------------|-----------------|-----------------|-----------------|
Ab|-2-2-2-2-2-2-2-2-|-2-2-2-2-2-2-2\--|---------------2-|-2---------------|
Eb|-----------------|-----------------|-0-0---5---0-----|-----------------|


Going out on the town
Just a me and you
Gonna have ourselves a party
Just like we use to do
Nobody's playing Manilow
Nobody's playing soul
And no one's playing hard to get
Just a good old rock 'n' roll

Get it hot, get it hot
Come on baby, get it hot
Get it hot, get it hot
Alright

Moving down the motorway
Got a whole lotta booze
Got myself a sweet little (mother mamma)
Whose got nothing to lose
Gonna bend you like a G string
Enough to light my fire (conduct you like a choir)
So get your body in the right place
We'll set the world on fire

Get it hot, get it hot
Come on baby, get it hot
Get it hot, get it hot
Alright

Ow!

Get it hot, get it hot
Come on baby, get it hot
Get it hot, oh, get it hot
Oh little girl, get it hot
Come on baby, get it hot
Make me feel good, get it hot
Oh baby, get it hot
Whoooa yeah

================================================
8. IF YOU WANT BLOOD (YOU'VE GOT IT)
================================================

Intro: (0:13)

   A   Gradually become louder
G|-----------------|-----------------|-----------------|-----------------|
D|-7---7-7-7-7-7-7-|-7-7-7-7-7-7-7-7-|-7-7-7-7-7-7-7-7-|-7-7-7-7-7-7-7-7-|
A|-----------------|-----------------|-----------------|-----------------|
E|-----------------|-----------------|-----------------|-----------------|

   A
G|-----------------|-----------------|-----------------|-----------------|
D|-7-7-7-7-7-7-7-7-|-7-7-7-7-7-7-7-7-|-7-7-7-7-7-7-7-7-|-7-7-7-7-7-7-7\--|
A|-----------------|-----------------|-----------------|-----------------|
E|-----------------|-----------------|-----------------|-----------------|

Verse 1:

   A                 D                 A                 D
G|-----------------|-----------------|-----------------|-----------------|
D|-----------------|-----------------|-----------------|-----------------|
A|---------------3-|-5-5-5-5-5-5-5-5-|---------------3-|-5-5-5-5-5-5-5-5-|
E|-5-5-5-5-5-5-5---|-----------------|-5-5-5-5-5-5-5---|-----------------|

   A                 D                 A                 D
G|-----------------|-----------------|-----------------|-----------------|
D|-----------------|-----------------|-----------------|-----------------|
A|---------------3-|-5-5-5-5-5-5-5-5-|---------------3-|-5-5-5-5-5-5-5-5-|
E|-5-5-5-5-5-5-5---|-----------------|-5-5-5-5-5-5-5---|-----------------|

   A                 D                 A                 D
G|-----------------|-----------------|-----------------|-----------------|
D|-----------------|-----------------|-----------------|-----------------|
A|---------------3-|-5-5-5-5-5-5-5-5-|---------------3-|-5-5-5-5-5-5-5-5-|
E|-5-5-5-5-5-5-5---|-----------------|-5-5-5-5-5-5-5---|-----------------|

   A                 D                 A                 D
G|-----------------|-----------------|-----------------|-----------------|
D|-----------------|-----------------|-----------------|-----------------|
A|---------------3-|-5-5-5-5-5-5-5-5-|---------------3-|-5-5-5-5-5-------|
E|-5-5-5-5-5-5-5---|-----------------|-5-5-5-5-5-5-5---|-----------0-2-0-|

Chorus 1:

   A         G   D                     A         G   D
G|-----------------|-----------------|-----------------|-----------------|
D|-----------------|-----------------|-----------------|-----------------|
A|---------------5-|---5-5-5-5-5-5-5-|---------------5-|---5-5-5-5-5-5-5-|
E|-5-5-5-5-5-3-----|-----------------|-5-5-5-5-5-3-----|-----------------|

   A         G   D                     A         G   D
G|-----------------|-----------------|-----------------|-----------------|
D|-----------------|-----------------|-----------------|-----------------|
A|---------------5-|---5-5-5-5-5-5-5-|---------------5-|---5-5-5-5-------|
E|-5-5-5-5-5-3-3---|-----------------|-5-5-5-5-5-3-----|-----------0-2-3-|

   A         G   D                     A         G   D
G|-----------------|-----------------|-----------------|-----------------|
D|-----------------|-----------------|-----------------|-----------------|
A|---------------5-|---5-5-5-5-5-5-5-|---------------5-|---5-5-5-5-5-5-5-|
E|-5-5-5-5-5-3-----|-----------------|-5-5-5-5-5-3-----|-----------------|

   A         G   D
G|-----------------|-----------------|-----------------|-----------------|
D|-----------------|-----------------|-----------------|-----------------|
A|---------------5-|---5-5-5-5-5-5-5-|-5-5-5-5-5-5-5-5-|-5-5-5-5-5-------|
E|-5-5-5-5-5-3-----|-----------------|-----------------|-----------0-2-0-|

Pre Verse 2:

   A                 D                 A                 D
G|-----------------|-----------------|-----------------|-----------------|
D|-----------------|-----------------|-----------------|-----------------|
A|---------------3-|-5-5-5-5-5-5-5-5-|---------------3-|-5-5-5-5-5-5-5-5-|
E|-5-3-4-5-5-5-5---|-----------------|-5-5-5-5-5-5-5---|-----------------|

Verse 2:

   A                 D                 A                 D
G|-----------------|-----------------|-----------------|-----------------|
D|-----------------|-----------------|-----------------|-----------------|
A|---------------3-|-5-5-5-5-5-5-5-5-|---------------3-|-5-5-5-5-5-5-5-5-|
E|-5-5-5-5-5-5-5---|-----------------|-5-5-5-5-5-5-5---|-----------------|

   A                 D                 A                 D
G|-----------------|-----------------|-----------------|-----------------|
D|-----------------|-----------------|-----------------|-----------------|
A|---------------3-|-5-5-5-5-5-5-5-5-|---------------3-|-5-5-5-5-5-5-5-5-|
E|-5-5-5-5-5-5-5---|-----------------|-5-5-5-5-5-5-5---|-----------------|

   A                 D                 A                 D
G|-----------------|-----------------|-----------------|-----------------|
D|-----------------|-----------------|-----------------|-----------------|
A|---------------3-|-5-5-5-5-5-5-5-5-|---------------3-|-5-5-5-5-5-5-5-5-|
E|-5-5-5-5-5-5-5---|-----------------|-5-5-5-5-5-5-5---|-----------------|

   A                 D                 A                 D
G|-----------------|-----------------|-----------------|-----------------|
D|-----------------|-----------------|-----------------|-----------------|
A|---------------3-|-5-5-5-5-5-5-5-5-|---------------3-|-5-5-------------|
E|-5-5-5-5-5-5-5---|-----------------|-5-5-5-5-5-5-5---|-----2-2-3-3-4-4-|

Chorus 2:

   A         G   D                     A         G   D
G|-----------------|-----------------|-----------------|-----------------|
D|-----------------|-----------------|-----------------|-----------------|
A|---------------5-|---5-5-5-5-5-5-5-|---------------5-|---5-5-5-5-5-5-5-|
E|-5-5-5-5-5-3-----|-----------------|-5-5-5-5-5-3-----|-----------------|

   A         G   D                     A         G   D
G|-----------------|-----------------|-----------------|-----------------|
D|-----------------|-----------------|-----------------|-----------------|
A|---------------5-|---5-5-5-5-5-5-5-|---------------5-|---5-5-5-5-5-5-5-|
E|-5-5-5-5-5-3-3---|-----------------|-5-5-5-5-5-3-----|-----------------|

   A         G   D                     A         G   D
G|-----------------|-----------------|-----------------|-----------------|
D|-----------------|-----------------|-----------------|-----------------|
A|---------------5-|---5-5-5-5-5-5-5-|---------------5-|---5-5-5-5-5-5-5-|
E|-5-5-5-5-5-3-----|-----------------|-5-5-5-5-5-3-----|-----------------|

   A         G   D
G|-----------------|-----------------|-----------------|-----------------|
D|-----------------|-----------------|-----------------|-----------------|
A|---------------5-|---5-5-5-5-5-5-5-|-5-5-5-5-5-5-5-5-|-5-5-5-5-5-5-5-5-|
E|-5-5-5-5-5-3-----|-----------------|-----------------|-----------------|

   D
G|-----------------|-----------------|
D|-----------------|-----------------|
A|-5-5-5-5-5-5-5-5-|-5-5-5-3---3-2-2-|
E|-----------------|-----------------|

Guitar Solo:

   A                 D                 A                 D
G|-----------------|-----------------|-----------------|-----------------|
D|-----------------|-----------------|-----------------|-----------------|
A|---------------3-|-5-5-5-5-5-5-5-5-|---------------3-|-5-5-5-5-5-5-5-5-|
E|-5-5-5-5-5-5-5---|-----------------|-5-5-5-5-5-5-5---|-----------------|

   A                 D                 A                 D
G|-----------------|-----------------|-----------------|-----------------|
D|-----------------|-----------------|-----------------|-----------------|
A|---------------3-|-5-5-5-5-5-5-5-5-|---------------3-|-5-5-5-5-5-------|
E|-5-5-5-5-5-5-5---|-----------------|-5-5-5-5-5-5-5---|-----------0-2-0-|

   A                 D                 A                 D
G|-----------------|-----------------|-----------------|-----------------|
D|-----------------|-----------------|-----------------|-----------------|
A|---------------3-|-5-5-5-5-5-5-5-5-|---------------3-|-5-5-5-5-5-5-5-5-|
E|-5-2-5-5-5-5-5---|-----------------|-5-5-5-5-5-5-5---|-----------------|

   A                 D                 A                 D
G|-----------------|-----------------|-----------------|-----------------|
D|-----------------|-----------------|-----------------|-----------------|
A|---------------3-|-5-5-5-5-5-5-5-5-|---------------3-|-5-5-5-5-5-5-5-5-|
E|-5-5-5-5-5-5-5---|-----------------|-5-5-5-5-5-5-5---|-----------------|

Bridge:

   A                   D               A                 F#    G     C
G|-----------------|-----------------|-----------------|-----------------|
D|-----------------|-----------------|-----------------|-----------------|
A|-----------------|---5-5---5-5-----|-----------------|-------------3---|
E|-5---------------|-----------------|-5---------------|-2-----3---------|

   A                   D               A                 F#    G     C
G|-----------------|-----------------|-----------------|-----------------|
D|-----------------|-----------------|-----------------|-----------------|
A|-----------------|---5-5---5-5-----|-----------------|-------------3---|
E|-5---------------|-----------------|-5---------------|-2-----3---------|

   A                   D               A                 F#    G     C
G|-----------------|-----------------|-----------------|-----------------|
D|-----------------|-----------------|-----------------|-----------------|
A|-----------------|---5-5---5-5-----|-----------------|-------------3---|
E|-5---------------|-----------------|-5---------------|-2-----3---------|

   A                   D               A                 F#    G     C
G|-----------------|-----------------|-----------------|-----------------|
D|-----------------|-----------------|-----------------|-----------------|
A|-----------------|---5-5---5-5-----|-----------------|-------------3---|
E|-5---------------|-----------------|-5---------------|-2-----3---------|

  A            G D
G|-----------------|-----------------|-----------------|-----------------|
D|-----------------|-----------------|-----------------|-----------------|
A|---------------5-|-----------------|-----------------|-----------------|
E|-5-----------3---|-----------------|-----------------|-----------------|

Pre Chorus 3:

G|-----------------|-----------------|-----------------|-----------------|
D|-----------------|-----------------|-----------------|-----------------|
A|-----------------|-----------------|-----------------|-----------------|
E|-----------------|-----------------|-----------------|-----------------|

   A   Gradually become louder
G|-----------------|-----------------|-----------------|-----------------|
D|-7---7-7-7-7-7-7-|-7-7-7-7-7-7-7-7-|-7-7-7-7-7-7-7-7-|-7-7-7-7-7-5-7---|
A|-----------------|-----------------|-----------------|---------------7-|
E|-----------------|-----------------|-----------------|-----------------|

Chorus 3:

   A                 D                 A                 D
G|-----------------|-----------------|-----------------|-----------------|
D|-----------------|-----------------|-----------------|-----------------|
A|---------------3-|-5-5-5-5-5-5-5-5-|---------------3-|-5-5-5-5-5-5-5-5-|
E|-5-5-5-5-5-5-5---|-----------------|-5-5-5-5-5-5-5---|-----------------|

   A                 D                 A                 D
G|-----------------|-----------------|-----------------|-----------------|
D|-----------------|-----------------|-----------------|-----------------|
A|---------------3-|-5-5-5-5-5-5-5-5-|---------------3-|-5-5-------------|
E|-5-5-5-5-5-5-5---|-----------------|-5-5-5-5-5-5-5---|-----2-2-3-3-4-4-|

   A                 D                 A                 D
G|-----------------|-----------------|-----------------|-----------------|
D|-----------------|-----------------|-----------------|-----------------|
A|---------------3-|-5-5-5-5-5-5-5-5-|---------------3-|-5-5-5-5-5-5-5-5-|
E|-5-5-5-5-5-5-5---|-----------------|-5-5-5-5-5-5-5---|-----------------|

   A                 D                 A                 D
G|-----------------|-----------------|-----------------|-----------------|
D|-----------------|-----------------|-----------------|-----------------|
A|---------------3-|-5-5-5-5-5-5-5-5-|---------------3-|-5-5-------------|
E|-5-5-5-5-5-5-5---|-----------------|-5-5-5-5-5-5-5---|-----2-2-3-3-4-4-|

   A                 D                 A                 D
G|-----------------|-----------------|-----------------|-----------------|
D|-----------------|-----------------|-----------------|-----------------|
A|---------------5-|-5-5-5-5-5-5-5-5-|---------------3-|-5-5-5-5-5-5-5-5-|
E|-5-5-5-7-8-8-9---|-----------------|-5-5-5-5-5-5-5---|-----------------|

                 Start fading out
   A                 D                 A                 D
G|-----------------|-----------------|-----------------|-----------------|
D|-----------------|-----------------|-----------------|-----4-4-5-5-6-6-|
A|---------------3-|-5-5-5-5-5-5-5-5-|---------------3-|-5-5-------------|
E|-5-5-5-5-5-5-5---|-----------------|-5-5-5-5-5-5-5---|-----------------|

   A             D                     A             D
G|-----------------|-----------------|-----------------|-----------------|
D|-7-7-7-5-7-7-7---|-----------------|-7-7-7-7-7-7-7---|-----------------|
A|---------------5-|-5-5-5-5-5-5-5-5-|---------------5-|-5-3---2---2-2-0-|
E|-----------------|-----------------|-----------------|-----------------|


It's criminal
There ought to be a law
Criminal
There ought to be a whole lot more
You get nothing for nothing
Tell me who can you trust
We got what you want
And you got the lust

If you want blood, you got it
If you want blood, you got it
Blood on the streets
Blood on the rocks
Blood in the gutter
Every last drop
You want blood, you got it

It's animal
Livin' in a human zoo
Animal
The shit that they toss to you
Feeling like a christian
Locked in a cage
Thrown to the lions
On the second page

If you want blood, you got it
If you want blood, you got it
Blood on the streets
Blood on the rocks
Blood in the gutter
Every last drop
You want blood, you got it

Blood on the rocks
Blood on the streets
Blood in the sky
Blood on the sheets
If you want blood - you got it

(I want you to bleed for me)

If you want blood, you got it

================================================
9. LOVE HUNGRY MAN
================================================
Tune down 1/2 step (From standard)

Intro: (0:16)

    Db                F       F#        Ab
Gb|-----------------|-----------------|-----------------|-----------------|
Db|-----------------|-----------------|-----------------|-----------------|
Ab|-5---------------|-----------------|-----------------|-----------------|
Eb|-----------------|-2-------3-------|-5---------------|-----------------|

    Db                F       F#        Ab
Gb|-----------------|-----------------|-----------------|-----------------|
Db|-----------------|-----------------|-----------------|-----------------|
Ab|-5---------------|-----------------|-----------------|-----------------|
Eb|-----------------|-2-------3-------|-5---------------|-----------------|

Verse 1:

    Db                F       F#        F#            F#  Ab   F# Ab
Gb|-----------------|-----------------|-----------------|-----------------|
Db|-----------------|-----------------|-542-------------|-----------------|
Ab|-5---------------|-----------------|----x5-3---------|-----------------|
Eb|-----------------|-2-------3-------|---------5-----3-|-5---5-3-5-------|

    Db                F       F#        F#            F#  Ab   F# Ab
Gb|-----------------|-----------------|-----------------|-----------------|
Db|-----------------|-----------------|-542-------------|-----------------|
Ab|-5---------------|-----------------|----x5-3---------|-----------------|
Eb|-----------------|-2-------3-------|---------5-----3-|-5---5-3-5-------|

    F#            F#  Ab   F# Ab        F#                Ab   F# Ab
Gb|-----------------|-----------------|-----------------|-----------------|
Db|-542-------------|-----------------|-542-------------|-----------------|
Ab|----x5-3---------|-----------------|----x5-3---------|-----------------|
Eb|---------5-----3-|-5---5-3-5-------|---------5-----3-|-5---5-3-5-------|

    F#            F#  Ab   F# Ab        F#                Ab   F# Ab
Gb|-----------------|-----------------|-----------------|-----------------|
Db|-542-------------|-----------------|-542-------------|-----------------|
Ab|----x5-3---------|-----------------|----x5-3---------|-----------------|
Eb|---------5-----3-|-5---5-3-5-------|---------5-----3-|-5---5-3-5-------|

Chorus 1:

    Db                F       F#        F#            F#  Ab   F# Ab
Gb|-----------------|-----------------|-----------------|-----------------|
Db|-----------------|-----------------|-542-------------|-----------------|
Ab|-5---------------|-----------------|----x5-3---------|-----------------|
Eb|-----------------|-2-------3-------|---------5-----3-|-5---5-3-5-------|

    Db                F       F#        F#            F#  Ab   F# Ab
Gb|-----------------|-----------------|-----------------|-----------------|
Db|-----------------|-----------------|-542-------------|-----------------|
Ab|-5---------------|-----------------|----x5-3---------|-----------------|
Eb|-----------------|-2-------3-------|---------5-----3-|-5---5-3-5-------|

Verse 2:

     Ab
Gb|-----------------|-----------------|-----------------|-----------------|
Db|-----------------|-----------------|-----------------|-----------------|
Ab|-----------------|-----------------|-----------------|-----------------|
Eb|-35-55-3-5-------|-35-55-3-5-------|-35-55-3-5-------|-35-55-3-5-------|

     Ab
Gb|-----------------|-----------------|-----------------|-----------------|
Db|-----------------|-----------------|-----------------|-----------------|
Ab|-----------------|-----------------|-----------------|-----------------|
Eb|-35-55-3-5-------|-35-55-3-5-------|-35-55-3-5-------|-35-55-3-5-------|

Chorus 2:

    Db                F       F#        F#                Ab   F# Ab
Gb|-----------------|-----------------|-----------------|-----------------|
Db|-----------------|-----------------|-542-------------|-----------------|
Ab|-5---------------|-----------------|----x5-3---------|-----------------|
Eb|-----------------|-2-------3-------|---------5-------|-35-55-3-5-------|

    Db                F       F#        F#            F#  Ab   F# Ab
Gb|-----------------|-----------------|-----------------|-----------------|
Db|-----------------|-----------------|-542-------------|-----------------|
Ab|-5---------------|-----------------|----x5-3---------|---------------3-|
Eb|-----------------|-2-------3-------|---------5-----3-|-5---5-3-5-------|

Guitar Solo:

    Db      F#  D     D       F#  F     Ab
Gb|-----------------|-----------------|-----------------|-----------------|
Db|---------5-------|---------5---4---|-----------------|-----------------|
Ab|-5---5-5-----5---|35---5-5---------|-----------------|-----------------|
Eb|-----------------|-----------------|-35-55-3-5-------|-35-55-3-5-------|

    Db      F#  F     D       F#  F     Ab
Gb|-----------------|-----------------|-----------------|-----------------|
Db|---------5---4---|---------5---4---|-----------------|-----------------|
Ab|-5---5-5---------|-5---5-5---------|-----------------|---------------2-|
Eb|-----------------|-----------------|-35-55-3-5-------|-35-55-3-5-------|

    B       E   Eb    F#      B   Bb    Db      F#  F     Db      F#  F
Gb|-----------------|-----------------|-----------------|-----------------|
Db|---------3---2---|-----------------|---------5---4---|---------5---4p2-|
Ab|-3-33--3---------|---------3---2---|35---5-5---------|-5---5-5---------|
Eb|-----------------|-3---3-3---------|-----------------|-----------------|

    B       E   Eb    F#      B   Bb    Ab
Gb|-----------------|-----------------|-----------------|-----------------|
Db|---------3---2---|-----------------|-----------------|-57-77-5-7-------|
Ab|-3-33--3---------|---------3---2---|-----------------|-----------------|
Eb|-----------------|-3---3-3---------|-35-55-3-5-------|-----------------|

      Ab
Gb|-----------------|-12-14---14-14-12-14-|
Db|-57-77-5-7-------|---------------------|
Ab|-----------------|---------------------|
Eb|-----------------|---------------------|

Bridge:

    Db                F       F#        Ab
Gb|-----------------|-----------------|-----------------|-----------------|
Db|-----------------|-----------------|-----------------|-----------------|
Ab|-5---------------|-----------------|-----------------|-----------------|
Eb|-----------------|-2-------3-------|-5---------------|-----------------|

    Db                F       F#        Ab
Gb|-----------------|-----------------|-----------------|-----------------|
Db|-----------------|-----------------|-----------------|-----------------|
Ab|-5---------------|-----------------|-----------------|-----------------|
Eb|-----------------|-2-------3-------|-5---------------|-----------------|

Chorus 3:

    Db                F       F#        F#            F#  Ab   F# Ab
Gb|-----------------|-----------------|-----------------|-----------------|
Db|-----------------|-----------------|-542-------------|-----------------|
Ab|-5---------------|-----------------|----x5-3---------|-----------------|
Eb|-----------------|-2-------3-------|---------5-----3-|-5---5-3-5-------|

    Db                F       F#        F#            F#  Ab   F# Ab
Gb|-----------------|-----------------|-----------------|-----------------|
Db|-----------------|-----------------|-542-------------|-----------------|
Ab|-5---------------|-----------------|----x5-3---------|-----------------|
Eb|-----------------|-2-------3-------|---------5-----3-|-5---5-3-5-------|

    Db                F       F#        F#            F#  Ab   F# Ab
Gb|-----------------|-----------------|-----------------|-----------------|
Db|-----------------|-----------------|-542-------------|-----------------|
Ab|-5---------------|-----------------|----x5-3---------|-----------------|
Eb|-----------------|-2-------3-------|---------5-----3-|-5---5-3-5-------|

    Db                F       F#        F#            F#  Ab   F# Ab
Gb|-----------------|-----------------|-----------------|-----------------|
Db|-----------------|-----------------|-542-------------|-----------------|
Ab|-5---------------|-----------------|----x5-3---------|-----------------|
Eb|-----------------|-2-------3-------|---------5-----3-|-5---5-3-5-------|

     Db                F       F#        F#            F#  Ab   F# Ab
Gb|-----------------|-----------------|-----------------|-----------------|
Db|-----------------|-----------------|-542-------------|-----------------|
Ab|-5---5-5-5---5---|-----------------|----x5-3---------|---------------xx|
Eb|-----------------|-2-------3-------|---------5-----3-|-5---5-3-5-------|

     Db                F       F#       F#            F#  Ab   F# Ab
Gb|-----------------|-----------------|-----------------|-----------------|
Db|-----------------|-----------------|-542-------------|-----------------|
Ab|-5---5-5-5---5---|-----------------|----x5-3---------|---------------xx|
Eb|-----------------|-2-------3-------|---------5-----3-|-5---5-3-5-------|

     Db                F       F#        F#            F#  Ab   F# Ab
Gb|-----------------|-----------------|-----------------|-----------------|
Db|-----------------|-----------------|-542-------------|-----------------|
Ab|-5---5-5-5---5---|-----------------|----x5-3---------|---------------34|
Eb|-----------------|-2-------3-------|---------5-----3-|-5---5-3-5-------|

     Db                F       F#        F#            F#  Ab   F# Ab
Gb|-----------------|-----------------|-----------------|-----------------|
Db|-----------------|-----------------|-542-------------|-----------------|
Ab|-5---5-5-5---5---|-----------------|----x5-3---------|---------------x-|
Eb|-----------------|-2-------3-------|---------5-----3-|-5---5-3-5-------|

Outro:

    Db                F       F#        F#            F#  Ab   F# Ab
Gb|-----------------|-----------------|-----------------|-----------------|
Db|-----------------|-----------------|-542-------------|-----------------|
Ab|-5---5-5-5---5-5-|-----------------|----x5-3---------|---------------x-|
Eb|-----------------|-2-------3-------|---------5-----3-|-5---5-3-5-------|

    Db                F       F#        F#            F#  Ab   F# Ab
Gb|-----------------|-----------------|-----------------|-----------------|
Db|-----------------|-----------------|-542-------------|-----------------|
Ab|-5---------------|-----------------|----x5-3---------|-----------------|
Eb|-----------------|-2--2--2-3--3--3-|---------5-----3-|-5---5-3-5-------|

    Db                F       F#        Ab
Gb|-----------------|-----------------|-----------------|-----------------|
Db|-----------------|-----------------|-----------------|-----------------|
Ab|-5---------------|-----------------|-----------------|-----------------|
Eb|-----------------|-2--2--2-3--3--3-|-5---------------|-----------------|

    Ab
Gb|-----------------|
Db|-----------------|
Ab|-----------------|
Eb|-55-5---5-3--5---|


Oh, you're the one I've waited for,
I need your lovin' more and more,
I don't know what your name is,
I don't know what your game is,
I wanna take you tonight, animal appetite,

'Cause I'm a love hungry man,
Yeah, I'm a love hungry man

Don't want no conversation,
I need sweet sensation,
And all I want to do,
Is make a meal out of you,

'Cause I'm a love hungry man, out to get what I can,
'Cause I'm a love hungry man, I'm tellin' you, oh yes I am

I'm your love hungry man,
Oh , baby you're such a treat,
And you know, a man's got to eat,
You're the one I've waited for, oh yes you are,
I need your loving more and more, yeah I do,

'Cause I'm a love, love hungry man, oh yes I am.
I'm a love, love hungry man, just a little bit
Oh, I'm a love, love hungry man,
Oh, I'm a love, love hungry man, I want you to know,
Oh, I'm a love, love hungry man,
Oh, I'm a love, love hungry man, ah, yes I am

Gimme one for the road and I'll carry your load,
I'm your man, yes I am,
A man's got to eat baby,
Bon appetite, I'm your,
Ooh, love hungry man

================================================
9. NIGHT PROWLER
================================================
Tune down 1/2 step (From standard)
12/8 Time signature

Intro: (0:08)

    Ab        Db              B         Db
Gb|-------------------------|-------------------------|
Db|-------------------------|-------------------------|
Ab|-----------5-------------|-3-----3---5-------------|
Eb|-5-----------------------|-------------------------|

                                              Eb
Gb|-------------------------|-------------------------|
Db|-------------------------|-------------------------|
Ab|-------------------------|---------------------0-3-|
Eb|-------------------------|-----------------0-3-----|

Guitar Solo 1:

    Ab        Db              B         Db    Eb
Gb|-------------------------|-------------------------|
Db|-------------------------|-------------------------|
Ab|-----------5-5---5-5---5-|-3---3-3---5-5-------0-3-|
Eb|-5---5-5-----------------|-----------------0-3-----|

    Ab        Db              B         Db    Eb
Gb|-------------------------|-------------------------|
Db|-------------------------|-------------------------|
Ab|-----------5-5---5-5---5-|-3---3-3---5-5-------0-3-|
Eb|-5---5-5-----------------|-----------------0-3-----|

    Ab        Db              B         Db    Eb
Gb|-------------------------|-------------------------|
Db|-------------------------|-------------------------|
Ab|-----------5-5---5-5---5-|-3---3-3---5-5-------0-3-|
Eb|-5---5-5-----------------|-----------------0-3-----|

    Ab        Db              B           Db
Gb|-------------------------|-------------------------|
Db|-------------------------|-------------------------|
Ab|-----------5-5---5-5---5-|-3-3-3-3-3-3-5-----------|
Eb|-5---5-5-----------------|-------------------------|

Pre Verse 1:

    Ab        Db
Gb|-------------------------|-------------------------|
Db|-------------------------|-------------------------|
Ab|-----------5-5---5-5---5-|-5---5-5---5-5---5-5---5-|
Eb|-5---5-5-----------------|-------------------------|

    Ab        Db
Gb|-------------------------|-------------------------|
Db|-------------------------|-------------------------|
Ab|-----------5-5---5-5---5-|-5---5-5---5-5---5-5---5-|
Eb|-5---5-5-----------------|-------------------------|

Verse 1:

    Ab        Db
Gb|-------------------------|-------------------------|
Db|-------------------------|-------------------------|
Ab|-----------5-5---5-5---5-|-5---5-5---5-5---5-5---5-|
Eb|-5---5-5-----------------|-------------------------|

    Ab        Db
Gb|-------------------------|-------------------------|
Db|-------------------------|-------------------------|
Ab|-----------5-5---5-5---5-|-5---5-5---5-5---5-5---5-|
Eb|-5---5-5-----------------|-------------------------|

    Ab        Db
Gb|-------------------------|-------------------------|
Db|-------------------------|-------------------------|
Ab|-----------5-5---5-5---5-|-5---5-5---5-5---5-5---5-|
Eb|-5---5-5-----------------|-------------------------|

    Ab        Db                              Eb
Gb|-------------------------|-------------------------|
Db|-------------------------|-------------------------|
Ab|-----------5-5---5-5---5-|-5---5-5---5-5-------0-3-|
Eb|-5---5-5-----------------|-----------------0-3-----|

    Ab        Db                              Eb
Gb|-------------------------|-------------------------|
Db|-------------------------|-------------------------|
Ab|-----------5-5---5-5---5-|-5---5-5---5-5-------0-3-|
Eb|-5---5-5-----------------|-----------------0-3-----|

    Ab        Db                              Eb
Gb|-------------------------|-------------------------|
Db|-------------------------|-------------------------|
Ab|-----------5-5---5-5---5-|-5---5-5---5-5-------0-3-|
Eb|-5---5-5-----------------|-----------------0-3-----|

    Ab        Db                              Eb
Gb|-------------------------|-------------------------|
Db|-------------------------|-------------------------|
Ab|-----------5-5---5-5---5-|-5---5-5---5-5-------0-3-|
Eb|-5---5-5-----------------|-----------------0-3-----|

    Ab        Db                              Eb
Gb|-------------------------|-------------------------|
Db|-------------------------|-------------------------|
Ab|-----------5-5---5-5---5-|-5---5-5---5-5-------0-3-|
Eb|-5---5-5-----------------|-----------------0-3-----|

Chorus 1:

    Ab        Db              B         Db    Eb
Gb|-------------------------|-------------------------|
Db|-------------------------|-------------------------|
Ab|-----------5-5---5-5---5-|-3---3-3---5-5-------0-3-|
Eb|-5---5-5-----------------|-----------------0-3-----|

    Ab        Db              B         Db    Eb
Gb|-------------------------|-------------------------|
Db|-------------------------|-------------------------|
Ab|-----------5-5---5-5---5-|-3---3-3---5-5-------0-3-|
Eb|-5---5-5-----------------|-----------------0-3-----|

    Ab        Db              B         Db    Eb
Gb|-------------------------|-------------------------|
Db|-------------------------|-------------------------|
Ab|-----------5-5---5-5---5-|-3---3-3---5-5-------0-3-|
Eb|-5---5-5-----------------|-----------------0-3-----|

    Ab        Db              B           Db
Gb|-------------------------|-------------------------|
Db|-------------------------|-------------------------|
Ab|-----------5-5---5-5---5-|-3-3-3-3-3-3-5-5-5-5-5-5-|
Eb|-5---5-5-----------------|-------------------------|

Guitar Solo 2:

    Ab        Db              B         Db    Eb
Gb|-------------------------|-------------------------|
Db|-------------------------|-------------------------|
Ab|-----------5-5---5-5-0-5-|-3---3-3---5-5-------0-3-|
Eb|-5---5-5-----------------|-----------------0-3-----|

    Ab        Db              B         Db    Eb
Gb|-------------------------|-------------------------|
Db|-------------------------|-------------------------|
Ab|-----------5-5---5-5-0-5-|-3---3-3---5-5-------0-3-|
Eb|-5---5-5-----------------|-----------------0-3-----|

    Ab        Db              B         Db    Eb
Gb|-------------------------|-------------------------|
Db|-------------------------|-------------------------|
Ab|-----------5-5---5-5-0-5-|-3---3-3---5-5-------0-3-|
Eb|-5---5-5-----------------|-----------------0-3-----|

    Ab        Db              B           Db
Gb|-------------------------|-------------------------|
Db|-------------------------|-------------------------|
Ab|-----------5-5---5-5---5-|-3-3-3-3-3-3-5-5-5-5-5-5-|
Eb|-5---5-5-----------------|-------------------------|

Verse 2:

    Ab        Db                              Eb
Gb|-------------------------|-------------------------|
Db|-------------------------|-------------------------|
Ab|-----------5-5---5-5---5-|-5---5-5---5-5-------0-3-|
Eb|-5---5-5-----------------|-----------------0-3-----|

    Ab        Db                              Eb
Gb|-------------------------|-------------------------|
Db|-------------------------|-------------------------|
Ab|-----------5-5---5-5---5-|-5---5-5---5-5-------0-3-|
Eb|-5---5-5-----------------|-----------------0-3-----|

    Ab        Db                              Eb
Gb|-------------------------|-------------------------|
Db|-------------------------|-------------------------|
Ab|-----------5-5---5-5---5-|-5---5-5---5-5-------0-3-|
Eb|-5---5-5-----------------|-----------------0-3-----|

    Ab        Db                              Eb
Gb|-------------------------|-------------------------|
Db|-------------------------|-------------------------|
Ab|-----------5-5---5-5---5-|-5---5-5---5-5-------0-3-|
Eb|-5---5-5-----------------|-----------------0-3-----|

Chorus 2:

    Ab        Db              B         Db    Eb
Gb|-------------------------|-------------------------|
Db|-------------------------|-------------------------|
Ab|-----------5-5---5-5-0-5-|-3---3-3---5-5-------0-3-|
Eb|-5---5-5-----------------|-----------------0-3-----|

    Ab        Db              B         Db    Eb
Gb|-------------------------|-------------------------|
Db|-------------------------|-------------------------|
Ab|-----------5-5---5-5---5-|-3---3-3---5-5-------0-3-|
Eb|-5---5-5-----------------|-----------------0-3-----|

    Ab        Db              B         Db    Eb
Gb|-------------------------|-------------------------|
Db|-------------------------|-------------------------|
Ab|-----------5-5---5-5---5-|-3---3-3---5-5-------0-3-|
Eb|-5---5-5-----------------|-----------------0-3-----|

    Ab        Db              B           Db
Gb|-------------------------|-------------------------|
Db|-------------------------|-------------------------|
Ab|-----------5-5---5-5-0-5-|-3-3-3-3-3-3-5-5-5-5-5-5-|
Eb|-5---5-5-----------------|-------------------------|

Guitar Solo 3:

    Ab        Db              B         Db    Eb
Gb|-------------------------|-------------------------|
Db|-------------------------|-------------------------|
Ab|-----------5-5---5-5---0-|-3---3-3---5-5-------0-3-|
Eb|-5---5-5-----------------|-----------------0-3-----|

    Ab        Db              B         Db    Eb
Gb|-------------------------|-------------------------|
Db|-------------------------|-------------------------|
Ab|-----------5-5---5-5---0-|-3---3-3---5-5-------0-3-|
Eb|-5---5-5-----------------|-----------------0-3-----|

    Ab        Db              B         Db    Eb
Gb|-------------------------|-------------------------|
Db|-------------------------|-------------------------|
Ab|-----------5-5---5-5---5-|-3---3-3---5-5-------0-3-|
Eb|-5---5-5-----------------|-----------------0-3-----|

    Ab        Db              B           Db  Eb
Gb|-------------------------|-------------------------|
Db|-------------------------|-------------------------|
Ab|-----------5-5---5-5---5-|-3-3-3-3-3-3-5-5-----0-3-|
Eb|-5---5-5-----------------|-----------------0-3-----|

    Ab                        B         Db    Eb
Gb|-------------------------|-------------------------|
Db|-------------------------|-------------------------|
Ab|-------------------------|-3-----3---5---------0-3-|
Eb|-5-----------------------|-----------------0-3-----|

    Ab                        B         Db    Eb
Gb|-------------------------|-------------------------|
Db|-------------------------|-------------------------|
Ab|-------------------------|-3-----3---5---------0-3-|
Eb|-5-----------------------|-----------------0-3-----|

    Ab        Db              B         Db    Eb
Gb|-------------------------|-------------------------|
Db|-------------------------|-------------------------|
Ab|-----------5-5---5-5---0-|-3---3-3---5-5-------0-3-|
Eb|-5---5-5-----------------|-----------------0-3-----|

    Ab        Db              B
Gb|-------------------------|-------------------------|
Db|-------------------------|-------------------------|
Ab|-----------5-5---5-5-0-5-|-3-3-3-3-3-3-3-3-3-3-3-3-|
Eb|-5---5-5-----------------|-------------------------|

    Db
Gb|-------------------------|
Db|-------------------------|
Ab|-5-5-5-5-5-5-5-5-5-5-5-5-|
Eb|-------------------------|

Chorus 3:

    Ab        Db              B         Db    Eb
Gb|-------------------------|-------------------------|
Db|-------------------------|-------------------------|
Ab|-----------5-5---5-5-0-5-|-3---3-3---5-5-------0-3-|
Eb|-5---5-5-----------------|-----------------0-3-----|

    Ab        Db              B         Db    Eb
Gb|-------------------------|-------------------------|
Db|-------------------------|-------------------------|
Ab|-----------5-5---5-5---5-|-3---3-3---5-5-------0-3-|
Eb|-5---5-5-----------------|-----------------0-3-----|

    Ab        Db              B         Db    Eb
Gb|-------------------------|-------------------------|
Db|-------------------------|-------------------------|
Ab|-----------5-5---5-5---0-|-3---3-3---5-5-------0-3-|
Eb|-5---5-5-----------------|-----------------0-3-----|

    Ab        Db              B         Db    Eb
Gb|-------------------------|-------------------------|
Db|-------------------------|-------------------------|
Ab|-----------5-5---5-5---5-|-3---3-3---5-5-------0-3-|
Eb|-5---5-5-----------------|-----------------0-3-----|

    Ab        Db              B         Db    Eb
Gb|-------------------------|-------------------------|
Db|-------------------------|-------------------------|
Ab|-----------5-5---5-5-0-5-|-3---3-3---5-5-------0-3-|
Eb|-5---5-5-----------------|-----------------0-3-----|

    Ab        Db              B         Db    Eb
Gb|-------------------------|-------------------------|
Db|-------------------------|-------------------------|
Ab|-----------5-5---5-5-0-5-|-3---3-3---5-5-------0-3-|
Eb|-5---5-5-----------------|-----------------0-3-----|

    Ab        Db              B         Db    Eb
Gb|-------------------------|-------------------------|
Db|-------------------------|-------------------------|
Ab|-----------5-5---5-5---5-|-3---3-3---5-5-------0-3-|
Eb|-5---5-5-----------------|-----------------0-3-----|

    Ab        Db              B
Gb|-------------------------|-------------------------|
Db|-------------------------|-------------------------|
Ab|-----------5-5---5-5---5-|-3-3-3-3-3-3-3-3-3-3-3-3-|
Eb|-5---5-5-----------------|-------------------------|

    Db                        Ab
Gb|-------------------------|-------------------------|
Db|-------------------------|-------------------------|
Ab|-5-5-5-5-5-5-5-5-5-5-5-5-|-------------------------|
Eb|-------------------------|-5-----------------------|
                              Bon's final words on
                              record come shortly after
                              this note...

Somewhere a clock strikes midnight
And there's a full moon in the sky
You hear a dog bark in the distance
You hear someone's baby cry
A rat runs down the alley
And a chill runs down your spine
And Someone walks across your grave
And you wish the sun would shine
Cause No one's gonna warn you
And no one's gonna yell 'Attack'
And you don't feel the steel
Till it's hanging out your back

I'm your Night Prowler, asleep in the day
I'm your Night Prowler, get out of my way
Look out for the Night Prowler, watch you tonight
I'm the Night Prowler, when you turn out the light

Too scared to turn your light out
'Cos there's something on your mind
Was that a noise outside your window?
What's that shadow on the blind?
As you lie there naked
Like a body in a tomb
Suspended animation
As I slip into your room

I'm your Night Prowler, asleep in the day
I'm your Night Prowler, get out of my way
Look out for the Night Prowler, watch you tonight
I'm the Night Prowler, when you turn out the light

I'm your Night Prowler, break down your door
I'm your Night Prowler, crawling 'cross your floor
I'm your Night Prowler, make a mess of you, yes I will
Night Prowler, and I am telling this to you
There ain't nothing you can do

Shazbot Nanu Nanu

=================================================
In Memory of Ronald Belford Scott (1946-1980)\m/
=================================================

            
            
Suggest correction
Creating personal tab
Creating personal tab
You can edit any tab online and save it as your Personal.

You can edit, replace or remove any tab part or add personal notes – all changes will be seen only by you.

Personal tabs can be accessed anytime from any device, even offline.
Learn more »
comments
print report bad tab
4 comments total. Showing first comments.
-1 reply
madbass6464 10 Jan 07, 2011 03:26 PM

this is wrong but very close heres the tab i'm assuming that you know when to start playing
---------------------------------------------------------------------
---------------------------------------5--4--------------------5--4--
---------------------------------------------------------------------
--0----000000000000---5--5--5--5--5--5-------5--5--5--5--5--5--------

---------------------------------------------------------------------
-------------------5--7----------------------------------------------
------------------------------------5-------------2nd verse no bass-----
--5--5--5--5--5--5-------5--5--5--5----------------------------------

---------------------------------------------------------
---------------------------------------------------------
--5-5-5-5-5-54-(5)--------------45-5-5-5-5-5-45-5-45------
----------------------------------------------------0-2-0
solo
-----------------------------------------------------
---------------------5--4----------------------5--4-4
-------------------------------------------4-7-------
--5--5--5--5--5--5-5-------5--5--5--5--5-5-----------

------------------------------------------------------
----------------------5--7----------------------------
-------------------7----------------------------------
--5--5--5--5--5--5----------5--5--5--5-0-5-0-2-0--3--2

----------------------------------------------------
----------------------5--4----------------------5--7
-----------------4-7-----------------------4-7------
--5--5--5--5--5-------------5--5--5--5--5-----------

------------------------------------------------------
--------------------------------------------------5---
----------------------------------------5------------5
--5--5--5--5--5-0-2-0--3--2--5--5--5--5---------------

------------------------------------------------
--------------------------------------------5--7
------------------------------------------------
--5--5--5--5------------------------5--5-5-------

-----------------------------------
-----------------------------------
-----------------------------------
--5--5--5--5--5--5-0-3--2 and fade off

0 reply
Dback139 306 Mar 04, 2012 01:55 PM

I've listened to HTH through and through and the tab that was originally listed here is correct.

0 reply
RickyRubio 536 Jun 14, 2015 02:36 AM

didn't like this contribution

guest
Wanna post a correction for this tab? Suggest correction