Oops, an error
Loading. Please wait.

Its A Long Way To The Top Bass Tab

version 1
version 1

Whole song

39,738 views 81 this week
5 commentsread comments
1 2 3 4 5
accurate
x 11
add to favorites
launch autoscroll
font size
0
reset
guitar tuner
Tab Pro tools
  • play this tab
  • loop segment
  • change instrument
  • show fretboard
  • metronome
×
Best way to learn
"Its A Long Way To The Top"
Autoscroll
slow
fast
+/-
esc
set tempo
stop
Contributor
-------------------------------------------------------------------------------
			     It's a long way to the top - AC/DC
-------------------------------------------------------------------------------

Tabbed By : Jack Niehsner
e-mail: boon_mcnougat@hotmail.com

Tuning: Standard
Well, I have looked for a tab on this song before and couldn't find it.
I tried again, and realised that still no-one had tabbed it. As my ear
has improved since the last time I searched for this song, I decided to
tab it myself, so other bassists can rumble underneath this awesome song.

VERSE (The bass just hums along, don't play along to the guitar)
G|---------------------------------|
D|---------------------------------|
A|---------------------------------|
E|-5-5-5-5-5-5-5-5-5-5-5-5-5-0-2-3-|
   1 & 2 & 3 & 4 & 5 & 6 & 7 & 8 &

BRIDGE ('Getting Robbed...')
G|-------------------------|
D|-------------------------|
A|-------------------------|
E|-5-5-5-5-5-0-2-3---------|
   1 & 2 & 3 & 4 &

CHORUS
G|------------------|
D|------------------|
A|-----2-3h-5h------|
E|-5-5---------3--2-|
   1 & 2 & 3 & 4 &

G|-----------------|
D|-----------------|
A|-----------------|
E|-5-5-5-5-5-5-5-5-|

During the Solo when the guitar and bagpipes alternate,
play the following under the bagpipes. Play the verse
under the guitars
G|-------------------------|
D|-------------------------|
A|-0-2-3-5-----------------|
E|---------0-2-3-5---------|
   1 2 3 4 5 6 7 8

Outro Improv (this seems to be played right towards the end)
G|-------------------------|
D|-5-3-2-------------------|
A|--------5-3-2------------|
E|---------------0-2-3-----|

| /  slide up
| \  slide down
| h  hammer-on
| p  pull-off
| ~  vibrato
| +  harmonic
| x  Mute note
===============================================================================
comments
print report bad tab
5 comments total. Showing first comments.
0 reply
bass_man3 wrote on April 13 2009, 08:03 pm

Lemon pie on a pineapple plum LOLROFLHAHAHA thats a krazy kat thats a cool cat!

0 reply
bass_man3 wrote on April 29 2009, 04:24 pm

Wouldnt thisride on B?

0 reply
BoonMcNougat wrote on August 29 2009, 11:34 pm

Yeah, sorry, I made a mistake. Instead of:

G|-------------------------|
D|-------------------------|
A|-------------------------|
E|-5-5-5-5-5-0-2-3---------|
1 & 2 & 3 & 4 &

It should be:

BRIDGE ('Getting Robbed...')
G|-------------------------|
D|-------------------------|
A|-1-1-1-1-1---------------|
E|-----------0-2-3---------|
1 & 2 & 3 & 4 &

All the 5's on the E string for the chorus, verse, and bridge should be 1's on the A string. My mistake, my bass wasn't tuned right when I originally tabbed it.

I want to post or [tab]
guest
You may want to rate the tab now too:
select rating
Please do not post tabs as comments. Select "correction" instead!