Oops, an error
Loading. Please wait.
We have an official Its A Long Way To The Top tab made by UG professional guitarists. Check out the tab »
×
by AC/DC
110,842 views 39 this week
10 commentsread comments
1 2 3 4 5
x 12
add to favorites
×
Save as Personal and add changes to this tab that will be seen only by you. Learn more ›
×
You can save this tab as Personal to edit and correct it or add notes. All changes will be seen only by you. Learn more »
launch autoscroll
font size
0
reset
how to read this tab
guitar tuner
edit
Autoscroll
slow
fast
+/-
esc
set tempo
stop
Author
Unregistered
[Intro]
(Guitar 1)
e|--------------------------------------------------------------------|
B|--------------------------------------------------------------------|
G|--------------------------------------------------------------------|
D|---4..4----4-----4..4----4-----4..4----4-----4..4----4--------------|
A|-0-2..2--x-2---0-2..2--x-2---0-2..2--x-2---0-2..2--x-2--------------|
E|--------------------------------------------------------------------|

[Fill]
(Guitar 2)
e|-------------------|
B|-------------------|
G|----------------4--|
D|---4..4-------2-4--|
A|-0-2..2--x-2H4--2--|
E|-------------------|

(After a while, Guitar 2 changes to this rhythm part)
e|--------------|
B|--------------|
G|--------------|
D|-4-4..4--2-4--|
A|-0-2..2--2-2--|
E|--------------|
  p

[Fill]
e|------7--x-7--| (Guitar 1)
B|------7----7--|
G|--------------|
D|-4-4..4--2-4--| (Guitar 2)
A|-0-2..2--2-2--|
E|--------------|

[Chorus]
e|-------------------   |-------------------------------------------------|
B|-------------------   |-------------------------------------------------|
G|-4------2---4..---- OR|-----9-------------------------------------------|
D|-4------2---2..----   |-9-7-9-------------------------------------------|
A|-2------0----------   |-9-7-7-------------------------------------------|
E|-------------------   |-7-5(0)------------------------------------------|

[Bridge]
e|-----------------------------------------------------------------------|
B|-----------------------------------------------------------------------|
G|-------9-----------9---------------------------------------------------|
D|-9-----9-------7---9---9-----------------------------------------------|
A|-9-----7-------7---7---9-----------------------------------------------|
E|-7-------------5-------7-----------------------------------------------|

(Then comes the solo.  The bagpipe part goes)
e|----7~~--|
B|---------|
G|-7H8-----|
D|---------|
A|---------|
E|---------|

(The solo is in the 7th position.)


************************************

| x    Dead note
| (n)  Ghost note
| ~    Vibrato

************************************
Suggest correction
Creating personal tab
Creating personal tab
You can edit any tab online and save it as your Personal.

You can edit, replace or remove any tab part or add personal notes – all changes will be seen only by you.

Personal tabs can be accessed anytime from any device, even offline.
Learn more »
comments
print report bad tab
10 comments total. Showing first comments.
-2 reply
hendriksfan 10 Sep 29, 2003 08:00 PM

this song is awesome. but i haven\'t heard it in a while so i don\'t know if it is correct

0 reply
hendrixisalive! 10 May 12, 2004 08:00 PM

im not really sure if it's right, but i usually play the main riff a different way because i think this way is easier and this method has been used in other rock songs like stranglehold by ted nugent. hope this helps some people. it goes lk this:
|---------------------------|
|---------------------------|
|---------------------------|
|--5-----7--7-----7---------|
|--5-----7--7-----7---------|
|--5-----5--5-----5---------|

0 reply
zaccy 201 Jan 27, 2005 07:00 PM

*** this

guest
Wanna post a correction for this tab? Suggest correction