Oops, an error
Loading. Please wait.

Let There Be Rock tab

version 1
version 1

Whole song

Interactive

by AC/DC
16,802 views 9 this week
10 commentsread comments
1 2 3 4 5
x 8
add to favorites
×
Save as Personal and add changes to this tab that will be seen only by you. Learn more ›
×
You can save this tab as Personal to edit and correct it or add notes. All changes will be seen only by you. Learn more »
launch autoscroll
font size
0
reset
how to read this tab
guitar tuner
edit
Autoscroll
slow
fast
+/-
esc
set tempo
stop
                LET THERE BE ROCK!
                       AC/DC

            ~              ~                  P P     ~
e |--------------|--------------|------------------------|
H |--------------|--------------|------------------------|
G |--------------|--------------|------5--7--8-7-5--7-5--|
D |---7--7--7\---|---7--7--7\---|---7--------------------|
A |--------------|--------------|------------------------|
E |--------------|--------------|------------------------|

               P P                P P
e |------------------------------------------------------|
H |------------------------------------------------------|
G |-----5--7--8-7-5--7-----5--7--8-7-5--7-----5--5-------|
D |--7------------------7------------------7-------------|
A |------------------------------------------------------|
E |------------------------------------------------------|


e |-----------------|  |-----------|    |--------| 
H |-----------------|  |-----------|    |--------| 
G |--------5--5--5--|  |-----5--5--| x5 |-----5--| 
D |--7--7-----------|  |--7--------|    |--7-----| 
A |-----------------|  |-----------|    |--------| 
E |-----------------|  |-----------|    |--------| 


e |----------|     |--------|  |-----------|    |--------|
H |----------|     |--------|  |-----------|    |--------|
G |-----5--5-| x9  |-----7--|  |-----7--7--| x5 |-----7--|
D |--7-------|     |--7-----|  |--9--------|    |--9-----|
A |----------|     |--------|  |-----------|    |--------|
E |----------|     |--------|  |-----------|    |--------|


e |-----------|    |--------|
H |-----------|    |--------|
G |-----7--7--| x3 |-----7--|
D |--9--------|    |--9-----|
A |-----------|    |--------|
E |-----------|    |--------|


And here we go now, folks!
                 ________
                |    3   | <----- (pull-offs)
e |----------17--------------------------------------------|
H |--20(22)------20-17-------------------------19--17------|
G |--------------------17--17------19--17------------------|
D |----------------------------19----------19----------19--|
A |--------------------------------------------------------|
E |--------------------------------------------------------|


e |------------------|     Warning!    
H |----------10--10--|     The first  
G |--12(14)----------| x4  bend is    
D |------------------|     slower than   
A |------------------|     the other ones.       
E |------------------|                 


e |----------------------------------|
H |----------10----------10----------|
G |--12(14)------12(14)------12(14)--|
D |----------------------------------|
A |----------------------------------|
E |----------------------------------|


TAB explanation

 P      - pull-off
 20(22) - bend from 20 to 22 fret
 ~      - vibrato
 \___   - slide
 | 3 |  - triolet




            
            
Suggest correction
Creating personal tab
Creating personal tab
You can edit any tab online and save it as your Personal.

You can edit, replace or remove any tab part or add personal notes – all changes will be seen only by you.

Personal tabs can be accessed anytime from any device, even offline.
Learn more »
comments
print report bad tab
10 comments total. Showing first comments.
-1 reply
Bonfire 40 Sep 13, 2002 08:00 PM

Intro

Guitar 2 (Malcolm)use alternative pickn
|------------------|------------------|
|------------------|------------------|
|------------------|------------------|
|-2-----2--2--2--2-|-2-----2--2--2--2-|
|-3-----0--0--0--0-|-3-----0--0--0--0-|
|------------------|------------------|

|------------------|------------------|
|------------------|------------------|
|------------------|------------------|
|-2-----2--2--2--2-|-2---2--2---2--2--|
|-3-----0--0--0--0-|-3---0--5---0--3--|
|------------------|------------------|
Guitar 1 (Angus)
|------------------|------------------|
|------------------|------------------|
|-5----------------|-5----------------|
|-5----------------|-5----------------|
|-3----------------|-3----------------|
|------------------|------------------|

|------------------|------------------|
|------------------|------------------|
|-5----------------|-5------7------5--|
|-5----------------|-5------7------5--|
|-3----------------|-3------5------3--|
|------------------|------------------|

Hit this when Bon goes "let there be rock"

|------------------|------------------|
|------------------|------------------|
|------------------|------------------|
|-2---2-2----------|-2---2-2----------|
|-3---3-0----------|-3---3-0----------|
|------------------|------------------|
Then comes the solo part guitar 2 continus..after awile the riff goes

|------------------|------------------|
|------------------|------------------|
|------------------|------------------|
|-7---7-5----------|-7---7-5----------|
|-5---5-3--------

0 reply
ibanez87 311 May 06, 2005 08:00 PM

Bonfire, what are you doing? Anyway this tab is the solo only!

0 reply
Spartan 117 40 Jan 16, 2006 12:52 PM

Bonfire is so wrong on everything in their

guest
Wanna post a correction for this tab? Suggest correction