Oops, an error
Loading. Please wait.

Live Wire bass

version 2
version 2

Whole song

Interactive

by AC/DC
6,459 views 15 this week
6 commentsread comments
1 2 3 4 5
x 12
add to favorites
×
Save as Personal and add changes to this tab that will be seen only by you. Learn more ›
×
You can save this tab as Personal to edit and correct it or add notes. All changes will be seen only by you. Learn more »
launch autoscroll
font size
0
reset
guitar tuner
backing track
0:00
0:00
edit
Autoscroll
slow
fast
+/-
esc
set tempo
stop
-------------------------------------------------------------------------------
                             Live Wire - AC/DC
-------------------------------------------------------------------------------

Tabbed By : Mangablade
e-mail: goronbud23@hotmail.com

Standard E

Intro/verses (80% of song)

G|-----------------|-----------------|-----------------|-----------------|
D|-----------------|-----------------|-----------------|-----------------|
A|-2-2-2-2-2-2-2-2-|-2-2-2-2-2-2-2-2-|-2-2-2-2-2-2-2-2-|-2-2-2-2-2-2-2-2-|
E|-----------------|-----------------|-----------------|-----------------|

Chorus

G|-----------------|-----------------|-----------------|-----------------|
D|-----------------|-----------------|-----------------|-----------------|
A|-----------------|-----------------|-2-2-2-2-2-2-2-2-|-2-2-2-2-2-2-2-2-|
E|-3-3-3-3-3-3-3-3-|-3-3-3-3-3-3-3-3-|-----------------|-----------------|

G|-----------------|-----------------|-----------------|-----------------|
D|-----------------|-----------------|-----------------|-----------------|
A|-----------------|-----------------|-----------------|-----------------|
E|-3-3-3-3-3-3-3-3-|-3-3-3-3-3-3-3-3-|-2-2-2-2-2-2-2-2-|-2-2-2-2-2-2-2-2-|

Bridge (starts ahead of beat)

G|---|------------------|------------------|
D|---|------------0-----|------------0-----| x4 (full bars only)
A|-2-|(2)-0-2-0-2-----2-|(2)-0-2-0-2-----2-|
E|---|------------------|------------------|

Solo over bridge riff (8 bars), chorus part, play this for ending:

G|-----------------|-----------------|-------------|
D|-----------------|-----------------|-------------|
A|-----------------|-------0-------2-|-2-----------|
E|-2-2-2-2-2-2-2-2-|-2-2-2-----0-----|-------------|

            
            
Suggest correction
Creating personal tab
Creating personal tab
You can edit any tab online and save it as your Personal.

You can edit, replace or remove any tab part or add personal notes – all changes will be seen only by you.

Personal tabs can be accessed anytime from any device, even offline.
Learn more »
comments
print report bad tab
6 comments total. Showing first comments.
0 reply
ratbollocks 687 May 08, 2005 08:00 PM

not bad 4 first tab!

0 reply
Gimme a Bullet 10 Jan 02, 2008 05:21 AM

hey man good tab

0 reply
ferrariman56 10 Feb 25, 2008 03:12 PM

nice job dude just add what the bass plays with the drums at 3:35
and your set or just leave it the way it is and make the noobies figure it out for themselfes

guest
You may want to rate the tab now too:
select rating
Wanna post a correction for this tab? Suggest correction