Oops, an error
Loading. Please wait.

Love At First Feel Tab

version 1
version 1

Whole song

Interactive

8,598 views 12 this week
3 commentsread comments
1 2 3 4 5
accurate
x 15
add to favorites
launch autoscroll
font size
0
reset
how to read this tab
guitar tuner
Tab Pro tools
  • play this tab
  • loop segment
  • change instrument
  • show fretboard
  • metronome
×
Best way to learn
"Love At First Feel"
Autoscroll
slow
fast
+/-
esc
set tempo
stop
Contributor
tuning:standard
tabbed by:a crazy teenage rock and roll fan
artist:acdc
song title:love at first feel
album:dirty deeds done dirt cheap
written by:angus young, malcom young, bon scott
year:1976

intro
E|-------------------------------------------------------|
B|---------------3------------------3------------------3-|
G|-2-------------2----2-------------2----2--------2----2-|
D|-2--------5----0----2--------5----0----2--------2----0-|
A|-0--------5---------0--------5---------0--------0------|
E|----------3------------------3-------------------------|

verse.
E|-----------------------------------|
B|-----------------------------------|
G|---9-9-----9-9-----7-7-------7---7-|
D|---9-9-----9-9-----7-7-------7---7-|
A|-7-----7-7-----5-5-----5-5-5---5---|
E|-0-----0-0-------------------------|

chorus 
the chorus rifff is exactly the same as the intro riff so there
is no point on wasting space for it here.

then play the verse and chorus again.

guitar solo.
for the solo, rythm guitar will play the verse and then the chorus

solo.
E|-------------------------------------------------------------|
B|-------------------------------------------------------------|
G|-------------------------------------------------------------|
D|-------------------------------------------------------------|
A|-0h2h3-0h2h3-0h2h3-0h2h3-0h2h3-0h2h3-0h2h3-0h2h3-0h3h5-0h3h5-|
E|-------------------------------------------------------------|

E|-------------------------------------------------------------|
B|-------------------------------------------------------------|
G|-------------------------------------------------------------|
D|-------------------------------------------------------------|
A|-0h3h5-0h3h5-0h3h5-0h3h5-0h3h5-0h3h5-0h5h7-0h5h7-0h5h7-0h5h7-|
E|-------------------------------------------------------------|

E|-------------------------------------------------------------|
B|-------------------------------------------------------------|
G|-------------------------------------------------------------|
D|-------------------------------------------------------------|
A|-0h5h7-0h5h7-0h5h7-0h5h7-0h7h9-0h7h9-0h7h9-0h7h9-0h7h9-0h7h9-|
E|-------------------------------------------------------------|

E|-------------12-12-11b12-11b12-11b12\-16b17-15p12h17===12-|
B|----------------------------------------------------------|
G|----------------------------------------------------------|
D|----------------------------------------------------------|
A|-0h7h9-0h7h9----------------------------------------------|
E|----------------------------------------------------------|

E|------------------------------------------------------|
B|-12-10-10-12-10-8-8-8---12p10h12p10-11p9h11p9-9p7h9p7-|
G|------------------------------------------------------|
D|------------------------------------------------------|
A|------------------------------------------------------|
E|------------------------------------------------------|

E|---------------------17-17---17-17-17---17-17-17---17-17-|
B|-7p5h7p5-5p3h5p3-2-0-------------------------------------|
G|---------------------------------------------------------|
D|---------------------------------------------------------|
A|---------------------------------------------------------|
E|---------------------------------------------------------|

then just play the chorus out.
comments
print report bad tab
3 comments total.
0 reply
AcdcTXfan wrote on July 12 2006, 09:31 pm

This is a good tab. The solo sounds right to me. The verse is correct. The intro is nearly correct but Angus and Malcolm play it like this
E|---------3---------------3----------------3--------------|
B|---------3---3-----------3---3------------3---3--------3-|
G|-2-------0---2---2-------0---2----2-------0---2---2----2-|
D|-2-------0---0---2-------0---0----2-------0---0---2----0-|
A|-0---------------0----------------0---------------0------|
E|---------3---------------3----------------3--------------|

0 reply
guitarman547 wrote on October 25 2007, 11:03 pm

yeah i agree.
nice job by the way

0 reply
Moltenrokk wrote on August 2 2009, 04:19 pm

actually Angus love to play songs with full open chords and with a G chord and followed by a D chord at the end instead just a D chord like yours.it goes more like this:
A G D A G D A G D A
E|-0-------3---2---0-------3---2----0-------3---2---0----3--2-|
B|-2-------3---3---2-------3---3----2-------3---3---2----3--3-|
G|-2-------0---2---2-------0---2----2-------0---2---2----0--2-|
D|-2-------0---0---2-------0---0----2-------0---0---2----0--0-|
A|-0---------------0----------------0---------------0---------|
E|---------3---------------3----------------3------------3----|

I want to post or [tab]
guest
You may want to rate the tab now too:
select rating
Please do not post tabs as comments. Select "correction" instead!