Oops, an error
Loading. Please wait.

Meltdown Tab

version 2
version 2

Whole song

Interactive

by AC/DC
2,838 views 3 this week
no commentswrite comment
1 2 3 4 5
x 4
add to favorites
×
Save as Personal and add changes to this tab that will be seen only by you. Learn more ›
×
You can save this tab as Personal to edit and correct it or add notes. All changes will be seen only by you. Learn more »
save as personal
new!
launch autoscroll
font size
0
reset
how to read this tab
guitar tuner
Autoscroll
slow
fast
+/-
esc
set tempo
stop
Tuning
E A D G B E
AC/DC
Meltdown
Stiff Upper Lip

Well this is my first tab submission so you're gonna have to bear with me on this
one..I have everything but the solo, I think every guitarist should do their own solos.


[INTRO]
             .        .       (rest)                     .        .       (rest)
e-----|----0----------0------|--------------------|----0----------0------|
B-----|----0-3----2----------|--------------------|----0-3----2----------|
G---0h|1-----4----2----------|------------------0h|1-----4----2----------|
D-----|----------------------|--------------------|----------------------|
A-----|----------------------|--------------------|----------------------|
E-----|----------------------|--------------------|----------------------|
 \ 3 / \ 3 /      \ 3 /                      \ 3 / \ 3 /      \ 3 /

[FULL RIFF/VERSE]
             .        .             .        .
e-----|----0----------0------|----0----------0------|
B-----|----0-3----2----------|----0-3----2----------|
G---0h|1-----4----2--------0h|1-----4----2--------0h| etc
D-----|----------------------|----------------------|
A-----|----------------------|----------------------|
E-----|----------------------|----------------------|
 \ 3 / \ 3 /      \ 3 / \ 3 / \ 3 /      \ 3 / \ 3 /

[CHORUS]
Malcolm
e-----|-----------------------|-----------------------|
B---3-|---------------------3-|---------------------3-|
G---2-|-----0---2-0---2-0---2-|-----0---2-0---2-0---2-| etc
D---0-|-----0---2-0---2-0---0-|-----0---2-0---2-0---0-|
A-----|---------0-----0-------|---------0-----0-------|
E-----|-----3-----3-----3-----|-----3-----3-----3-----|
 \ 3 /      \ 3 / \ 3 / \ 3 /       \ 3 / \ 3 / \ 3 /

Angus
e-----|-----------------------|-----------------------|
B-----|-----------------------|-----------------------|
G--/11|-~~~-4---6-4---6-4--/11|-~~~-4---6-4---6-4--/11| etc
D--/12|-~~~-5---7-5---7-5--/12|-~~~-5---7-5---7-5--/12|
A-----|-----------------------|-----------------------|
E-----|-----------------------|-----------------------|
 \ 3 /      \ 3 / \ 3 / \ 3  /      \ 3 / \ 3 / \ 3  /

End chorus with two bars of A5.


Tabbed By: Brandon R.


*************************

| h  Hammer-on
| .  Staccato
| /  Slide up into note
| ~  Vibrato

*************************
Suggest correction
comments
print report bad tab
guest
Wanna post a correction for this tab? Suggest correction