Oops, an error
Loading. Please wait.
We have an official Moneytalks tab made by UG professional guitarists. Check out the tab »
×
by AC/DC
46,024 views 255 this week
6 commentsread comments
1 2 3 4 5
x 10
add to favorites
×
Save as Personal and add changes to this tab that will be seen only by you. Learn more ›
×
You can save this tab as Personal to edit and correct it or add notes. All changes will be seen only by you. Learn more »
launch autoscroll
font size
0
reset
how to read this tab
guitar tuner
backing track
0:00
0:00
edit
Autoscroll
slow
fast
+/-
esc
set tempo
stop
Author
Difficulty
MONEYTALKS
                                   AC/DC
                                   RAZORS EDGE

  this is an easy song, thats fun to play by AC/DC. if any of you know who the third 
is u can PM me. for the parts with 3 guitars if you play the 1st and 3rd one live if you 
2 guitarists it will sound fine. some of the timing is off with the E,Q, etc. i think only in the chorus.

Gtr I - standard tuning - (lead) Angus Young
   II - standard tuning - (rythem) Malcolm Young
  III - standard tuning - not sure who he is


[Intro]

   Gtr I
    E  Q   E  Q   Q     +E   E  E   E  E   Q.
e|-------------------|--------------------------|
B|-------------------|--------------------------|
G|-16-14--16-14--17--|-(17)-16-14--12-14--12----|
D|-12-12--12-12--12--|-(12)-12-12--12-12--12----|
A|-------------------|--------------------------|
E|-------------------|--------------------------|
 |
 | Gtr II
 |  E  Q   E  Q   Q     +E   E  E   E  E   Q.
e|-------------------|--------------------------|
B|--3--3---3--3---1--|--(1)--1-(1)--1-(1)--1----|
G|--4--2---4--2---0--|--(0)--4p=2---0h=2---0----|
D|--0--0---0--0---0--|--(0)---------------------|
A|----------------3--|--(3)---------------------|
E|--3--3---3--3------|--------------------------|


    E  Q   E  Q   Q     +E   E  E  E   E  E   Q
e|-------------------|---------------------------|
B|-------------------|---------------------------|
G|-16-14--16-14--17--|-(17)-16-14-12--12-14--12--|
D|-12-12--12-12--12--|-(12)-12-12-12--12-12--12--|
A|-------------------|---------------------------|
E|-------------------|---------------------------|
 |
 |  E  Q   E  Q   Q     +E   E  E  E   E  E   Q
e|-------------------|---------------------------|
B|--3--3---3--3---1--|--(1)--1-(1)(1)--1-(1)--1--|
G|--4--2---4--2---0--|--(0)--4--2p=0---0h=2---0--|
D|--0--0---0--0---0--|--(0)----------------------|
A|----------------3--|--(3)----------------------|
E|--3--3---3--3------|---------------------------|


    E  Q   E  Q   Q     +E   E  E   E  E   Q.      E  Q   E  Q  Q    +W
e|-------------------|--------------------------|------------------|--------|
B|-------------------|--------------------------|---------------3--|-(3)----|
G|-16-14--16-14--17--|-(17)-16-14--12-14--12----|-16-14--16-14--2--|-(2)----|
D|-12-12--12-12--12--|-(12)-12-12--12-12--12----|-12-12--12-12--0--|-(0)----|
A|-------------------|--------------------------|------------------|--------|
E|-------------------|--------------------------|------------------|--------|
|
 |  E  Q   E  Q   Q     +E   E  E   E  E   Q.      E  Q   E  Q  Q    +W
e|-------------------|--------------------------|------------------|--------|
B|--3--3---3--3---1--|--(1)--1-(1)--1-(1)--1----|--3--3---3--3--3--|-(3)----|
G|--4--2---4--2---0--|--(0)--4p=2---0h=2---0----|--4--2---4--2--2--|-(2)----|
D|--0--0---0--0---0--|--(0)---------------------|--0--0---0--0--0--|-(0)----|
A|----------------3--|--(3)---------------------|------------------|--------|
E|--3--3---3--3------|--------------------------|--3--3---3--3-----|--------|

   Q.   E E E S S E   Q.   E E E S S E   Q.   E E E S S E   Q.   E E E S S E
e|------------------|------------------|------------------|------------------|
B|-3----3-----------|-3----3-----------|-3----3-----------|-3----3-----------|
G|-0----0-----------|-0----0-----------|-0----0-----------|-0----0-----------|
D|-0----0-----------|-0----0-----------|-0----0-----------|-0----0-----------|
A|-x----x-----1s2---|-x----x-----1s2---|-x----x-----1s2---|-x----x-----1h2---|
E|-3----3---3-----3-|-3----3---3-----3-|-3----3---3-----3-|-3----3---3-----3-|
|
 | Q.   E E E S S E   Q.   E E E S S E   Q.   E E E S S E   Q.   E E E S S E
e|------------------|------------------|------------------|------------------|
B|------------------|------------------|------------------|------------------|
G|------------------|------------------|------------------|------------------|
D|------------------|------------------|------------------|------------------|
A|-5----5-----1h2---|-5----5-----1h2---|-5----5-----1h2---|-5----5-----1h2---|
E|-3----3---3-----3-|-3----3---3-----3-|-3----3---3-----3-|-3----3---3-----3-|


[Verse 1]

     Q.   E E E S S E   Q.   E E E S S E
e||-------------------|------------------|
B||o-3----3-----------|-3----3-----------|
G||--0----0-----------|-0----0-----------|
D||--0----0-----------|-0----0-----------|
A||o------------1s2---|------------1s2---|
E||--3----3---3-----3-|-3----3---3-----3-|
 |
 |   Q.   E E E S S E   Q.   E E E S S E
e||-------------------|------------------|
B||o------------------|------------------|
G||-------------------|------------------|
D||-------------------|------------------|
A||o-5----5-----1s2---|-5----5-----1s2---|
E||--3----3---3-----3-|-3----3---3-----3-|

   Q.   E E E S S E   Q.   E E E S S E
e|------------------|--------------------||
B|-3----3-----------|-3----3------------o||
G|-0----0-----------|-0----0-------------||
D|-0----0-----------|-0----0-------------||
A|------------1s2---|------------1h2----o||
E|-3----3---3-----3-|-3----3---3-----3---||
 |
 | Q.   E E E S S E   Q.   E E E S S E
e|------------------|--------------------||
B|------------------|-------------------o||
G|------------------|--------------------||
D|------------------|--------------------||
A|-5----5-----1s2---|-5----5-----1s2----o||
E|-3----3---3-----3-|-3----3---3-----3---||


   Gtrs I, II
   Q.   E E E S S E   Q.   E E E S S E   Q.   E E E S S E   Q.   E E E S S E
e|------------------|------------------|------------------|------------------|
B|-3----3-----------|-3----3-----------|-3----3-----------|-3----3-----------|
G|-2----2-----------|-2----2-----------|-2----2-----------|-2----2-----------|
D|-0----0---0-3s4-0-|-0----0---0-3s4-0-|-0----0---0-3s4-0-|-0----0---0-3s4-0-|
A|------------------|------------------|------------------|------------------|
E|------------------|------------------|------------------|------------------|

   Q.   E E E S S E   Q.   E E E S S E   Q.   E E E S S E   Q.   E E E S S E
e|------------------|------------------|------------------|------------------|
B|------------------|------------------|------------------|------------------|
G|------------------|------------------|------------------|------------------|
D|-5----5-----1s2---|-5----5-----1s2---|-5----5-----1s2---|-5----5-----1s2---|
A|-3----3---3-----3-|-3----3---3-----3-|-3----3---3-----3-|-3----3---3-----3-|
E|------------------|------------------|------------------|------------------|


[Chorus]

( if you only have 2 guitars u don't have to play the second one.)
      E  Q   E  Q      Q     +E   E  E   E  E   Q.
e||-----------------------|--------------------------|
B||o----------------------|--------------------------|
G||--16-14--16-14-----17--|-(17)-16-14--12-14--12----|
D||--12-12--12-12-----12--|-(12)-12-12--12-12--12----|
A||o----------------------|--------------------------|
E||-----------------------|--------------------------|
 |
 |   Gtr II
 |    E  Q   E  Q      Q     +E   E  E   E  E   Q.
e||-----------------------|--------------------------|
B||o--3--3---3--3------1--|--(1)--1-(1)--1-(1)--1----|
G||---4--2---4--2------0--|--(0)--4p=2---0h=2---0----|
D||---0--0---0--0------0--|--(0)---------------------|
A||o-------------------3--|--(3)---------------------|
E||---3--3---3--3---------|--------------------------|
 |
 |   Gtr III
 |    E  Q   E  E  E   Q     +E   E  E   E  E   Q.
e||-----------------------|--------------------------|
B||o--3--3---3--3-(3)--1--|--(1)--1--1---1--1---1----|
G||---4--2---2--2p=0---0--|--(0)--4--2---0--2---0----|
D||---0--0---0--0-(0)-----|--------------------------|
A||o-------------------3--|--(3)--3--3---3--3---3----|
E||---3--3---3--3-(3)-----|--------------------------|

    E  Q   E  Q      Q     +E   E  E  E   E  E   Q
e|----------------------|-----------------------------||
B|----------------------|----------------------------o||
G|-16-14--16-14-----17--|-(17)-16-14-12--12-14--12----||
D|-12-12--12-12-----12--|-(12)-12-12-12--12-12--12----||
A|----------------------|----------------------------o||
E|----------------------|-----------------------------||
 |
 |  E  Q   E  Q      Q     +E   E  E  E   E  E   Q
e|----------------------|-----------------------------||
B|--3--3---3--3------1--|--(1)--1-(1)(1)--1-(1)--1---o||
G|--4--2---4--2------0--|--(0)--4--2p=0---0h=2---0----||
D|--0--0---0--0------0--|--(0)------------------------||
A|-------------------3--|--(3)-----------------------o||
E|--3--3---3--3---------|-----------------------------||
 |
 |  E  Q   E  E  E   Q     +E   E  E  E   E  E   Q
e|----------------------|-----------------------------||
B|--3--3---3--3-(3)--3--|--(3)--3--3--3---3--3---3---o||
G|--4--2---2--2p=0---5--|--(5)--4--2--0---0--2---0----||
D|--0--0---0--0-(0)--0--|--(0)--0--0--0---0--0---0----||
A|----------------------|----------------------------o||
E|--3--3---3--3-(3)-----|-----------------------------||


[Post-Chorus]

   Gtrs I, II
   Q.   E E E S S E   Q.   E E E S S E   Q.   E E E S S E   Q.   E E E S S E
e|------------------|------------------|------------------|------------------|
B|------------------|------------------|------------------|------------------|
G|------------------|------------------|------------------|------------------|
D|------------------|------------------|------------------|------------------|
A|-5----5-----1s2---|-5----5-----1s2---|-5----5-----1s2---|-5----5-----1s2---|
E|-3----3---3-----3-|-3----3---3-----3-|-3----3---3-----3-|-3----3---3-----3-|


[Verse 2]

     Q.   E E E S S E   Q.   E E E S S E
e||-------------------|------------------|
B||o-3----3-----------|-3----3-----------|
G||--0----0-----------|-0----0-----------|
D||--0----0-----------|-0----0-----------|
A||o------------1s2---|------------1s2---|
E||--3----3---3-----3-|-3----3---3-----3-|
 |
 |   Gtr II
 |   Q.   E E E S S E   Q.   E E E S S E
e||-------------------|------------------|
B||o------------------|------------------|
G||-------------------|------------------|
D||-------------------|------------------|
A||o-5----5-----1s2---|-5----5-----1s2---|
E||--3----3---3-----3-|-3----3---3-----3-|

   Q.   E E E S S E   Q.   E E E S S E
e|------------------|--------------------||
B|-3----3-----------|-3----3------------o||
G|-0----0-----------|-0----0-------------||
D|-0----0-----------|-0----0-------------||
A|------------1s2---|------------1h2----o||
E|-3----3---3-----3-|-3----3---3-----3---||
 |
 | Q.   E E E S S E   Q.   E E E S S E
e|------------------|--------------------||
B|------------------|-------------------o||
G|------------------|--------------------||
D|------------------|--------------------||
A|-5----5-----1s2---|-5----5-----1s2----o||
E|-3----3---3-----3-|-3----3---3-----3---||

   Gtrs I, II
   Q.   E E E S S E   Q.   E E E S S E   Q.   E E E S S E   Q.   E E E S S E
e|------------------|------------------|------------------|------------------|
B|-3----3-----------|-3----3-----------|-3----3-----------|-3----3-----------|
G|-2----2-----------|-2----2-----------|-2----2-----------|-2----2-----------|
D|-0----0---0-3s4-0-|-0----0---0-3h4-0-|-0----0---0-3h4-0-|-0----0---0-3h4-0-|
A|------------------|------------------|------------------|------------------|
E|------------------|------------------|------------------|------------------|


   Q.   E E E S S E   Q.   E E E S S E   Q.   E E E S S E   Q.   E E E S S E
e|------------------|------------------|------------------|------------------|
B|------------------|------------------|------------------|------------------|
G|------------------|------------------|------------------|------------------|
D|-5----5-----1s2---|-5----5-----1s2---|-5----5-----1s2---|-5----5-----1s2---|
A|-3----3---3-----3-|-3----3---3-----3-|-3----3---3-----3-|-3----3---3-----3-|
E|------------------|------------------|------------------|------------------|


[Chorus]

      E  Q   E  Q      Q     +E   E  E   E  E   Q.
e||-----------------------|--------------------------|
B||o----------------------|--------------------------|
G||--16-14--16-14-----17--|-(17)-16-14--12-14--12----|
D||--12-12--12-12-----12--|-(12)-12-12--12-12--12----|
A||o----------------------|--------------------------|
E||-----------------------|--------------------------|
 |
 |   Gtr II
 |    E  Q   E  Q      Q     +E   E  E   E  E   Q.
e||-----------------------|--------------------------|
B||o--3--3---3--3------1--|--(1)--1-(1)--1-(1)--1----|
G||---4--2---4--2------0--|--(0)--4p=2---0h=2---0----|
D||---0--0---0--0------0--|--(0)---------------------|
A||o-------------------3--|--(3)---------------------|
E||---3--3---3--3---------|--------------------------|
 |
 |   Gtr III
 |    E  Q   E  E  E   Q     +E   E  E   E  E   Q.
e||-----------------------|--------------------------|
B||o--3--3---3--3-(3)--1--|--(1)--1--1---1--1---1----|
G||---4--2---2--2p=0---0--|--(0)--4--2---0--2---0----|
D||---0--0---0--0-(0)-----|--------------------------|
A||o-------------------3--|--(3)--3--3---3--3---3----|
E||---3--3---3--3-(3)-----|--------------------------|

    E  Q   E  Q      Q     +E   E  E  E   E  E   Q
e|----------------------|-----------------------------||
B|----------------------|----------------------------o||
G|-16-14--16-14-----17--|-(17)-16-14-12--12-14--12----||
D|-12-12--12-12-----12--|-(12)-12-12-12--12-12--12----||
A|----------------------|----------------------------o||
E|----------------------|-----------------------------||
 |
 |  E  Q   E  Q      Q     +E   E  E  E   E  E   Q
e|----------------------|-----------------------------||
B|--3--3---3--3------1--|--(1)--1-(1)(1)--1-(1)--1---o||
G|--4--2---4--2------0--|--(0)--4--2p=0---0h=2---0----||
D|--0--0---0--0------0--|--(0)------------------------||
A|-------------------3--|--(3)-----------------------o||
E|--3--3---3--3---------|-----------------------------||
 |
 |  E  Q   E  E  E   Q     +E   E  E  E   E  E   Q
e|----------------------|-----------------------------||
B|--3--3---3--3-(3)--3--|--(3)--3--3--3---3--3---3---o||
G|--4--2---2--2p=0---5--|--(5)--4--2--0---0--2---0----||
D|--0--0---0--0-(0)--0--|--(0)--0--0--0---0--0---0----||
A|----------------------|----------------------------o||
E|--3--3---3--3-(3)-----|-----------------------------||


[Pre-Solo]

  D5
  Gtr II
  Q.   Q.   Q    +Q  Q.   Q.     Q.   Q.   Q    +Q        H      Q
  |    |    |     |  |    |      |    |    |     |
  /    /    /     /  /    /      /    /    /     /

   Gtr I
   W               W              W               Q  a    +H.
e|--------------|---------------|--------------|-----6b7==(6)r-------|
B|--------------|---------------|--------------|-----5b6==(5)r-------|
G|--------------|---------------|--------------|---------------------|
D|--------------|---------------|--------------|---------------------|
A|--------------|---------------|--------------|---------------------|
E|--------------|---------------|--------------|---------------------|


[Solo]

   a    +Q    E a     E   E E E   a    +E
e|-6b7==(6)r--3-----------3-3-3---6b7==(6)-|
B|-5b6==(5)r--3-------3---3-3-3---5b6==(5)-|
G|--------------5b7==(5)r------------------|
D|-----------------------------------------|
A|-----------------------------------------|
E|-----------------------------------------|
 |
 | Gtr II
 |       Q.           E   E E S S       E
e|-----------------------------------------|
B|-----------------------------------------|
G|-----------------------------------------|
D|-----------------------------------------|
A|-------5------------5-------1h2----------|
E|-------3------------3-----3-----------3--|

   +Q    E a     S   S E a    +Q.         +Q    E a    +E   a    +S  S  S S EE
e|-(6)r--3---------------6b7==(6)-------|-(6)r--3---------------------------------|
B|-(5)r--3-------3-------5b6==(5)-------|-(5)r--3-5b6==(5)r-5b6==(5)-5rp3---------|
G|---------5b7==(5)r--------------------|---------5b6==(5)r-5b6==(5)-5rp3---5---3-|
D|--------------------------------------|---------------------------------5-5---3-|
A|--------------------------------------|-----------------------------------------|
E|--------------------------------------|-----------------------------------------|
 |
 |  Q.           E     E       E  S S E    Q.           E         E     E   S S E
e|--------------------------------------|-----------------------------------------|
B|--------------------------------------|-----------------------------------------|
G|--------------------------------------|-----------------------------------------|
D|--------------------------------------|-----------------------------------------|
A|--5------------5----------------1h2---|--5------------5-------------------1h2---|
E|--3------------3-------------3------3-|--3------------3---------------3-------3-|


               ~~~
   +Q   S S E +Q    S S S S   S S S S E E a    +Q.        S S
e|------------------------3-|-----------------------------3---|
B|----------------------3---|-6p3---3---------------------3---|
G|-(3)--------------3h5-----|-----5---3---5b7==(5)r-----------|
D|-(3)--5p3-5-(5)-----------|-----------5---------------------|
A|--------------------------|---------------------------------|
E|--------------------------|---------------------------------|
 |
 |  Q.      E  E  E S S E     Q.        E       E   E S S E
e|--------------------------|---------------------------------|
B|--------------------------|---------------------------------|
G|--------------------------|---------------------------------|
D|--------------------------|---------------------------------|
A|--5-------5-------1h2-----|-5---------5-------------1h2-----|
E|--3-------3-----3-----3---|-3---------3-----------3-----3---|

   a    +S  S  S S E E +Q.         E    Q    a      +Q     +E    E   E         E
e|-----------------------------------|--------------------------------------------|
B|-----------------5-3-(3)-------/12-|--------------------------15--15--------15--|
G|-5b7==(5)-5rp3---5-3-(3)-----------|-12---14b15==(14)---(14)-(14)r14b15====(14)r|
D|---------------5-------------------|--------------------------------------------|
A|-----------------------------------|--------------------------------------------|
E|-----------------------------------|--------------------------------------------|
 |
 |       Q.          E  E  E S S   E    Q.              E   E    E   S     S   E
e|-----------------------------------|--------------------------------------------|
B|-----------------------------------|--------------------------------------------|
G|-----------------------------------|--------------------------------------------|
D|-----------------------------------|--------------------------------------------|
A|-------5-----------5-------1h2-----|--5---------------5------------1h====2------|
E|-------3-----------3-----3-------3-|--3---------------3--------3-------------3--|

    E       E   E       E    S   S  E  S  S  E
e|--------------------------------------------------|
B|-15------15--15------15---15----------------------|
G|-14b15==(14)r14b16==(14)-(14)r14p12-------14b16===|
D|------------------------------------12h14---------|
A|--------------------------------------------------|
E|--------------------------------------------------|
 |
 |  Q.                  E    E      E  S  S  E
e|--------------------------------------------------|
B|--------------------------------------------------|
G|--------------------------------------------------|
D|--------------------------------------------------|
A|--5-------------------5--------------1h=2---------|
E|--3-------------------3-----------3--------3------|

     Q     e  E  E   E  E    E     E   E  E  E  +Q      E    a      +E
e|-----------------------------|----------------------------------------|
B|--------15-------------------|----------------------------15-----(15)-|
G|-(15)r--16-12-12-----12---12-|------12-12-12-(12)---/12---14b15==(14)-|
D|-----------------/14---------|-/17------------------------------------|
A|-----------------------------|----------------------------------------|
E|-----------------------------|----------------------------------------|
 |
 |   Q.       E  E   E  S S  E     Q.        E   E  E   S S          E
e|-----------------------------|----------------------------------------|
B|---3--------3----------------|---3---------3--------------------------|
G|---2--------2----------------|---2---------2--------------------------|
D|---0--------0------0--3h4--0-|---0---------0------0---3h4----------0--|
A|-----------------------------|----------------------------------------|
E|-----------------------------|----------------------------------------|

                                   ~~~~~~~~~
    +Q     a      +Q     Q    E    E    +Q    S  S  Q   a E E   E
e|-----------------------------------|----------------------------|
B|-(15)---15-----(15)----------------|----------------------------|
G|-(14)r--14b15==(14)---14---14r--12-|-(12)-----------------------|
D|-----------------------------------|-------10h12p10-------5---5-|
A|-----------------------------------|------------------5s7-------|
E|-----------------------------------|----------------------------|
 |
 |   Q.               E  E E  S S  E     Q.         E E   E S S E
e|-----------------------------------|----------------------------|
B|---3----------------3--------------|---3----------3-------------|
G|---2----------------2--------------|---2----------2-------------|
D|---0----------------0----0--3h4--0-|---0----------0-----0-3h4-0-|
A|-----------------------------------|----------------------------|
E|-----------------------------------|----------------------------|

                 ~~
    E  E E Q   E Q       Q   E Q   +E  E    a      +E
e|---------------------|-------------------------------|
B|---------3-----------|-3---5-3---(3)-----15-----(15)-|
G|---------3-----------|-3---5-3---(3)-----14b15==(14)-|
D|-----5-5-----3-5-----|-------------------------------|
A|-/7------------------|-------------------------------|
E|---------------------|-------------------------------|
 |
 |  Q.     E E E S S E   Q.    E E  E  S S          E
e|---------------------|-------------------------------|
B|---------------------|-------------------------------|
G|---------------------|-------------------------------|
D|--5------5-----1h2---|-5-----5-------1h2-------------|
A|--3------3---3-----3-|-3-----3----3---------------3--|
E|---------------------|-------------------------------|

                                               |----3----|
   +E.  S  a      +E.   S  E.   S  E.    S     Q      Q  Q    Q.        +E
|-------------------------------------------|-18b20==18-18---18--------(18)r-|
|-(15)--x-15-----(15)---x-15----x-15-----x--|--------------------------------|
|-(14)r-x-14b15==(14)---x-14----x-14-----xr-|--------------------------------|
|-------------------------------------------|--------------------------------|
|-------------------------------------------|--------------------------------|
|-------------------------------------------|--------------------------------|
 |
 |   Q.                E    E  E    S S E       Q.          E  E  E S S   E
e|-------------------------------------------|--------------------------------|
B|-------------------------------------------|--------------------------------|
G|-------------------------------------------|--------------------------------|
D|---5-----------------5------------1h2------|--5-----------5-------1h2-------|
A|---3-----------------3-------3--------3----|--3-----------3-----3-------3---|
E|-------------------------------------------|--------------------------------|


[Pre-Chorus]

      E  Q   E  Q   Q     +E   E  E   E  E   Q.
e||--------------------|--------------------------|
B||o-------------------|--------------------------|
G||--16-14--16-14--17--|-(17)-16-14--12-14--12----|
D||--12-12--12-12--12--|-(12)-12-12--12-12--12----|
A||o-------------------|--------------------------|
E||--------------------|--------------------------|
 |
 |    E  Q   E  Q   Q     +E   E  E   E  E   Q.
e||--------------------|--------------------------|
B||o--3--3---3--3---1--|--(1)--1-(1)--1-(1)--1----|
G||---4--2---4--2---0--|--(0)--4p=2---0h=2---0----|
D||---0--0---0--0---0--|--(0)---------------------|
A||o----------------3--|--(3)---------------------|
E||---3--3---3--3------|--------------------------|

    E  Q   E  Q   Q     +E   E  E  E   E  E   Q
e|-------------------|-----------------------------||
B|-------------------|----------------------------o||
G|-16-14--16-14--17--|-(17)-16-14-12--12-14--12----||
D|-12-12--12-12--12--|-(12)-12-12-12--12-12--12----||
A|-------------------|----------------------------o||
E|-------------------|-----------------------------||
 |
 |  E  Q   E  Q   Q     +E   E  E  E   E  E   Q
e|-------------------|-----------------------------||
B|--3--3---3--3---1--|--(1)--1-(1)(1)--1-(1)--1---o||
G|--4--2---4--2---0--|--(0)--4--2p=0---0h=2---0----||
D|--0--0---0--0---0--|--(0)------------------------||
A|----------------3--|--(3)-----------------------o||
E|--3--3---3--3------|-----------------------------||


[Chorus]

      E  Q   E  Q      Q     +E   E  E   E  E   Q.
e||-----------------------|--------------------------|
B||o----------------------|--------------------------|
G||--16-14--16-14-----17--|-(17)-16-14--12-14--12----|
D||--12-12--12-12-----12--|-(12)-12-12--12-12--12----|
A||o----------------------|--------------------------|
E||-----------------------|--------------------------|
 |
 |    E  Q   E  Q      Q     +E   E  E   E  E   Q.
e||-----------------------|--------------------------|
B||o--3--3---3--3------1--|--(1)--1-(1)--1-(1)--1----|
G||---4--2---4--2------0--|--(0)--4p=2---0h=2---0----|
D||---0--0---0--0------0--|--(0)---------------------|
A||o-------------------3--|--(3)---------------------|
E||---3--3---3--3---------|--------------------------|
 |
 |   Gtr III
 |    E  Q   E  E  E   Q     +E   E  E   E  E   Q.
e||-----------------------|--------------------------|
B||o--3--3---3--3-(3)--1--|--(1)--1--1---1--1---1----|
G||---4--2---2--2p=0---0--|--(0)--4--2---0--2---0----|
D||---0--0---0--0-(0)-----|--------------------------|
A||o-------------------3--|--(3)--3--3---3--3---3----|
E||---3--3---3--3-(3)-----|--------------------------|

    E  Q   E  Q      Q     +E   E  E  E   E  E   Q    4x
e|----------------------|-----------------------------||
B|----------------------|----------------------------o||
G|-16-14--16-14-----17--|-(17)-16-14-12--12-14--12----||
D|-12-12--12-12-----12--|-(12)-12-12-12--12-12--12----||
A|----------------------|----------------------------o||
E|----------------------|-----------------------------||
 |
 |  E  Q   E  Q      Q     +E   E  E  E   E  E   Q    4x
e|----------------------|-----------------------------||
B|--3--3---3--3------1--|--(1)--1-(1)(1)--1-(1)--1---o||
G|--4--2---4--2------0--|--(0)--4--2p=0---0h=2---0----||
D|--0--0---0--0------0--|--(0)------------------------||
A|-------------------3--|--(3)-----------------------o||
E|--3--3---3--3---------|-----------------------------||
 |
 |  E  Q   E  E  E   Q     +E   E  E  E   E  E   Q    4x
e|----------------------|-----------------------------||
B|--3--3---3--3-(3)--3--|--(3)--3--3--3---3--3---3---o||
G|--4--2---2--2p=0---5--|--(5)--4--2--0---0--2---0----||
D|--0--0---0--0-(0)--0--|--(0)--0--0--0---0--0---0----||
A|----------------------|----------------------------o||
E|--3--3---3--3-(3)-----|-----------------------------||


[Outro]

   Q.   E E E S S E   Q.   E E E S S E   Q.   E E E S S E   W
e|------------------|------------------|------------------|------*|
B|-3----3-----------|-3----3-----------|-3----3-----------|------*|
G|-0----0-----------|-0----0-----------|-0----0-----------|------*|
D|-0----0-----------|-0----0-----------|-0----0-----------|------*|
A|------------1s2---|------------1s2---|------------1s2---|-5----*|
E|-3----3---3-----3-|-3----3---3-----3-|-3----3---3-----3-|-3----*|
 |
 | Gtr II
 | Q.   E E E S S E   Q.   E E E S S E   Q.   E E E S S E   W
e|------------------|------------------|------------------|------*|
B|------------------|------------------|------------------|------*|
G|------------------|------------------|------------------|------*|
D|------------------|------------------|------------------|------*|
A|-5----5-----1s2---|-5----5-----1s2---|-5----5-----1s2---|-5----*|
E|-3----3---3-----3-|-3----3---3-----3-|-3----3---3-----3-|-3----*|



************************************

| x    Dead note
| (n)  Ghost note
| h    Hammer-on
| p    Pull-off
| r    Release
| b    Bend
| /    Slide up
| s    Slide

************************************

            
            
Suggest correction
Creating personal tab
Creating personal tab
You can edit any tab online and save it as your Personal.

You can edit, replace or remove any tab part or add personal notes – all changes will be seen only by you.

Personal tabs can be accessed anytime from any device, even offline.
Learn more »
comments
print report bad tab
6 comments total. Showing first comments.
0 reply
ibanez87 311 Apr 16, 2007 03:18 PM

good

0 reply
biohazardist 81 Aug 06, 2007 05:41 AM

MINT

+2 reply
lunchboxturtle 30 Jun 03, 2008 07:17 PM

I HATE RAP TOOO!!!!!

guest
You may want to rate the tab now too:
select rating
Wanna post a correction for this tab? Suggest correction