Oops, an error
Loading. Please wait.

Overdose Tab

version 2
version 2

Whole song

Interactive

by AC/DC
24,615 views 60 this week
8 commentsread comments
1 2 3 4 5
x 18
add to favorites
launch autoscroll
font size
0
reset
how to read this tab
guitar tuner
×
Best way to learn
"Overdose"
Autoscroll
slow
fast
+/-
esc
set tempo
stop
Author
Tuning
D# G# C# F# A# D#
Tuning: tune down 1/2 step

[Intro]
      B7                               B7        E
 
Eb|---------2----------------|   Eb|---------2---------0---|
Bb|-------0--------0---------|   Bb|-------0---------0-----|
Gb|-----2--------------------|   Gb|-----2---------1-------|
Db|-------------1------------|   Db|-----------------------|
Ab|---2---------2------------|   Ab|---2-------------------|
Eb|--------------------(1)---|   Eb|-------------0---------|

      B7        E
Eb|---------2---------0---0---|
Bb|-------0---------0-----0---|
Gb|-----2---------1-------1---|
Db|-----------------------2---|
Ab|---2-------------------2---|
Eb|-------------0---------0---|

(Guitar 1)
(Angus)
      B7        E
Eb|---------2---------0---|
Bb|-------0---------0-----|
Gb|-----2---------1-------| (4x)
Db|-----------------------|
Ab|---2-------------------|
Eb|-------------0---------|

(Guitar 2)
(Malcolm)
      B5        E5
Eb|---------------------------|
Bb|---------------------------|
Gb|---4-----------------------| (4x)
Db|---4---------2-------------|
Ab|---2---------2-------------|
Eb|-------------0-------------|

[Rhythm]
(Guitars 1 and 2)
      B5  D5  E
Eb|---------------|
Bb|-------3-------|
Gb|---4---2---1---|
Db|---4---0---2---|
Ab|---2-------2---|
Eb|-----------0---|

[Pre-solo]
(Guitars 1 and 2)
      B5                    E   D
Eb|---------------|   Eb|-------2---|
Bb|---------------|   Bb|-------3---|
Gb|---4---4-4-4---|   Gb|---1---2--o| (3x)
Db|---4---4-4-4---|   Db|---2---0--o|
Ab|---2---2-2-2---|   Ab|---2-------|
Eb|---------------|   Eb|---0-------|

      E     D
Eb|---------2---2---2---|
Bb|---------3---3---3---|
Gb|---1-----2---2---2---|
Db|---2-----0---0---0---|
Ab|---2-----------------|
Eb|---0-----------------|


************************************

| b    Bend
| (n)  Ghost note

************************************
Suggest correction
comments
print report bad tab
8 comments total. Showing first comments.
0 reply
GuitarJunkie 100 Jan 08, 2005 07:00 PM

Great Tab, sounds good w/a flanger footswith in certain parts of the song too...im not sure if they used that, or just jacked the gain way way up, but whtevere works to get the fuzzy distortion

peace

0 reply
SaschaDozz 10 Aug 02, 2005 08:00 PM

I think its right, and thats first time that I say this to a ac/dc tab, here on this page, after the intro the right ac/dc Chords!!! wow, thats great, the intro? i think its also right, i am not sure, its not typical for ac/dc.....good tab

0 reply
Mord_Wraith 341 Aug 23, 2005 08:00 PM

thanks you guys!!

guest
You may want to rate the tab now too:
select rating
Wanna post a correction for this tab? Suggest correction