Oops, an error
Loading. Please wait.
We have an official Ride On tab made by UG professional guitarists. Check out the tab »
×
by AC/DC
82,861 views 78 this week
6 commentsread comments
1 2 3 4 5
x 30
add to favorites
×
Save as Personal and add changes to this tab that will be seen only by you. Learn more ›
×
You can save this tab as Personal to edit and correct it or add notes. All changes will be seen only by you. Learn more »
launch autoscroll
font size
0
reset
how to read this tab
guitar tuner
backing track
0:00
0:00
edit
Autoscroll
slow
fast
+/-
esc
set tempo
stop
Author
AC/DC - Ride on


[Intro]

   Tempo=70
  12/8
   Gtr I
e|---------------------|---------------------|-------------------|
B|-1---(1)--1-(1)------|-1---(1)--1-(1)------|-1---(1)--1-(1)----|
G|-0---(0)--2-(2)------|-0---(0)--2-(2)------|-0---(0)--2-(2)----|
D|-2---(2)--3-(3)------|-2---(2)--3-(3)------|-2---(2)--3-(3)----|
A|-3---(3)--3-(3)------|-3---(3)--3-(3)------|-3---(3)--3-(3)----|
E|---------------------|---------------------|-------------------|

                          Verse 1& 2
e|---------------------||----------------------|-------------------|
B|-1---(1)--1-(1)------||o-1---(1)--1-(1)------|-1---(1)--1-(1)----|
G|-0---(0)--2-(2)------||--0---(0)--2-(2)------|-0---(0)--2-(2)----|
D|-2---(2)--3-(3)------||--2---(2)--3-(3)------|-2---(2)--3-(3)----|
A|-3---(3)--3-(3)------||o-3---(3)--3-(3)------|-3---(3)--3-(3)----|
E|---------------------||----------------------|-------------------|

e|---------------------|---------------------|-------------------|
B|----------3-(3)------|----------3-(3)------|-------------------|
G|-2---(2)--3-(3)------|-2---(2)--3-(3)------|-4---(4)--5-(5)----|
D|-3---(3)--3-(3)------|-3---(3)--3-(3)------|-5---(5)--5-(5)----|
A|-3---(3)--1-(1)------|-3---(3)--1-(1)------|-5---(5)--3-(3)----|
E|-1---(1)-------------|-1---(1)-------------|-3---(3)-----------|

                                              1.
e|---------------------|---------------------|--------------------||
B|---------------------|-1---(1)--1-(1)------|-1---(1)--1-(1)----o||
G|-3---(3)--2-(2)------|-0---(0)--2-(2)------|-0---(0)--2-(2)-----||
D|-3---(3)--3-(3)------|-2---(2)--3-(3)------|-2---(2)--3-(3)-----||
A|-1---(1)--3-(3)------|-3---(3)--3-(3)------|-3---(3)--3-(3)----o||
E|----------1-(1)------|---------------------|--------------------||


[Chorus]

   2.
e|---------------------||---------------------|----------------------|
B|-1---(1)--1-(1)------||---------------------|----------------------|
G|-0---(0)--2-(2)------||---------------------|----------------------|
D|-2---(2)--3-(3)------||-------3---------3---|-------4---------4----|
A|-3---(3)--3-(3)------||---------------------|----------------------|
E|---------------------||-1-1-1-----1-1-1-----|-2-2-2-----2-2-2------|

e|-------------------------|-----------------||---------------------|
B|-------------------------|-----------1--1--||-(1)------(1)--------|
G|-------------------------|-----------2--0--||-(0)------(0)---5----|
D|-5-5-5-5-5-5-5-5-5-5-5-5-|-5---------3--2--||-(2)------(2)---5--5-|
A|-5-5-5-5-5-5-5-5-5-5-5-5-|-5---------3--3--||-(3)------(3)---3--5-|
E|-3-3-3-3-3-3-3-3-3-3-3-3-|-3---------------||-------------------3-|

e|-------------------|-------------------|------------------|
B|--------------1--1-|-(1)------1---3----|-------------1--1-|
G|--------------2--0-|-(0)------0---3--2-|-(2)---(2)---2--0-|
D|-(5)------5---3--2-|-(2)------2---3--3-|-(3)---(3)---3--2-|
A|-(5)------5---3--3-|-(3)------3---1--3-|-(3)---(3)---3--3-|
E|-(3)------3--------|-----------------1-|-(1)---(1)--------|

e|---------------------|---------------------|
B|-(1)------(1)---1--3-|-(3)------(3)--------|
G|-(0)------(0)---0--0-|-(0)------(0)---0----|
D|-(2)------(2)---2--0-|-(0)------(0)---0----|
A|-(3)------(3)---3----|---------------------|
E|-------------------3-|-(3)------(3)------0-|

                           Guitar Solo 1
  PM---------------------------------------------------------|
e|-------------------------|----------------------------------|
B|-------------------------|----------------------------------|
G|-2-2-2-2-2-2-2-2-2-2-2-2-|-2-2-2-2-2-2-2-2-2-2--2------2----|
D|-3-3-3-3-3-3-3-3-3-3-3-3-|-3-3-3-3-3-3-3-3-3-3--3------3----|
A|-3-3-3-3-3-3-3-3-3-3-3-3-|-3-3-3-3-3-3-3-3-3-3--3------3----|
E|-1-1-1-1-1-1-1-1-1-1-1-1-|-1-1-1-1-1-1-1-1-1-1--1------1----|
|
 | Gtr II
e|-------------------------|--------------------------------|
B|-------------------------|---------------------16b17-(16)-|
G|-------------------------|--------------------------------|
D|-------------------------|--------------------------------|
A|-------------------------|--------------------------------|
E|-------------------------|--------------------------------|

e|---------------------------------------------------------|
B|---1-----------------(1)--1--(1)-------------------------|
G|---0-----------------(0)--2--(2)-------------------------|
D|---2-----------------(2)--3--(3)-------------------------|
A|---3-----------------(3)--3--(3)-------------------------|
E|---------------------------------------------------------|
|
e|---------------------------------------------------------|
B|-(16)-15b17-(15)-13-(13)----(13)----15b16==(15)r(15)b17==|
G|---------------------------------------------------------|
D|---------------------------------------------------------|
A|---------------------------------------------------------|
E|---------------------------------------------------------|

e|-------------------------------------------|
B|---1-------(1)--1-(1)----------------------|
G|---0-------(0)--2-(2)----------------------|
D|---2-------(2)--3-(3)----------------------|
A|---3-------(3)--3-(3)----------------------|
E|-------------------------------------------|
|
e|-------15-(15)-----------------------------|
B|-(15)-----------------15b17-(15)-13-15-----|
G|---------------------------------------14--|
D|-------------------------------------------|
A|-------------------------------------------|
E|-------------------------------------------|

e|-------------------------|----------------------------------|
B|-----1---(1)--1-(1)------|----------1---------(1)--1-(1)----|
G|-----0---(0)--2-(2)------|----------0---------(0)--2-(2)----|
D|-----2---(2)--3-(3)------|----------2---------(2)--3-(3)----|
A|-----3---(3)--3-(3)------|----------3---------(3)--3-(3)----|
E|-------------------------|----------------------------------|

 |     ~~
e|-------------------------|----------------------------------|
B|-16p13-------------------|----------------------------------|
G|-------------------------|-10b11==(10)r(10)p8-(8)----(8)----|
D|-------------------------|----------------------------------|
A|-------------------------|----------------------------------|
E|-------------------------|----------------------------------|


[Verse 3]

e|------------------------|-------------------|
B|----1---(1)--1-(1)------|-1---(1)--1-(1)----|
G|----0---(0)--2-(2)------|-0---(0)--2-(2)----|
D|----2---(2)--3-(3)------|-2---(2)--3-(3)----|
A|----3---(3)--3-(3)------|-3---(3)--3-(3)----|
E|------------------------|-------------------|

      ~~
e|------------------------|-------------------|
B|------------------------|-------------------|
G|------------------------|-------------------|
D|-8h10-------------------|-------------------|
A|------------------------|-------------------|
E|------------------------|-------------------|

e|---------------------|---------------------|-------------------|
B|----------3-(3)------|----------3-(3)------|-------------------|
G|-2---(2)--3-(3)------|-2---(2)--3-(3)------|-4---(4)--5-(5)----|
D|-3---(3)--3-(3)------|-3---(3)--3-(3)------|-5---(5)--5-(5)----|
A|-3---(3)--1-(1)------|-3---(3)--1-(1)------|-5---(5)--3-(3)----|
E|-1---(1)-------------|-1---(1)-------------|-3---(3)-----------|

e|---------------------|---------------------|-------------------|
B|---------------------|-1---(1)--1-(1)------|-1---(1)--1-(1)----|
G|-3---(3)--2-(2)------|-0---(0)--2-(2)------|-0---(0)--2-(2)----|
D|-3---(3)--3-(3)------|-2---(2)--3-(3)------|-2---(2)--3-(3)----|
A|-1---(1)--3-(3)------|-3---(3)--3-(3)------|-3---(3)--3-(3)----|
E|----------1-(1)------|---------------------|-------------------|


[Verse 4]

e|---------------------|-------------------|
B|-1---(1)--1-(1)------|-1---(1)--1-(1)----|
G|-0---(0)--2-(2)------|-0---(0)--2-(2)----|
D|-2---(2)--3-(3)------|-2---(2)--3-(3)----|
A|-3---(3)--3-(3)------|-3---(3)--3-(3)----|
E|---------------------|-------------------|

e|---------------------|---------------------|-------------------|
B|----------3-(3)------|----------3-(3)------|-------------------|
G|-2---(2)--3-(3)------|-2---(2)--3-(3)------|-4---(4)--5-(5)----|
D|-3---(3)--3-(3)------|-3---(3)--3-(3)------|-5---(5)--5-(5)----|
A|-3---(3)--1-(1)------|-3---(3)--1-(1)------|-5---(5)--3-(3)----|
E|-1---(1)-------------|-1---(1)-------------|-3---(3)-----------|


e|---------------------|---------------------|-------------------|
B|---------------------|-1---(1)--1-(1)------|-1---(1)--1-(1)----|
G|-3---(3)--2-(2)------|-0---(0)--2-(2)------|-0---(0)--2-(2)----|
D|-3---(3)--3-(3)------|-2---(2)--3-(3)------|-2---(2)--3-(3)----|
A|-1---(1)--3-(3)------|-3---(3)--3-(3)------|-3---(3)--3-(3)----|
E|----------1-(1)------|---------------------|-------------------|


[Chorus]

e|---------------------|---------------------|
B|---------------------|---------------------|
G|---------------------|---------------------|
D|-------3---------3---|-------4---------4---|
A|---------------------|---------------------|
E|-1-1-1-----1-1-1-----|-2-2-2-----2-2-2-----|

e|-------------------------|----------------|
B|-------------------------|-----------1--1-|
G|-------------------------|-----------2--0-|
D|-5-5-5-5-5-5-5-5-5-5-5-5-|-5---------3--2-|
A|-5-5-5-5-5-5-5-5-5-5-5-5-|-5---------3--3-|
E|-3-3-3-3-3-3-3-3-3-3-3-3-|-3--------------|

e|---------------------|---------------------|
B|-(1)------(1)--------|----------------1--1-|
G|-(0)------(0)---5----|----------------2--0-|
D|-(2)------(2)---5--5-|-(5)------(5)---3--2-|
A|-(3)------(3)---3--5-|-(5)------(5)---3--3-|
E|-------------------3-|-(3)------(3)--------|

e|-------------------|------------------------|
B|-(1)------1---3----|----------------1--1----|
G|-(0)------0---3--2-|-(2)------(2)---2--0----|
D|-(2)------2---3--3-|-(3)------(3)---3--2----|
A|-(3)------3---1--3-|-(3)------(3)---3--3----|
E|-----------------1-|-(1)------(1)-----------|

e|-------------------|---------------------|
B|-1------(1)---1--3-|-(3)------(3)--------|
G|-0------(0)---0--0-|-(0)------(0)---0----|
D|-2------(2)---2--0-|-(0)------(0)---0----|
A|-3------(3)---3----|---------------------|
E|-----------------3-|-(3)------(3)------0-|

  PM---------------------------------------------------|
e|-------------------------|----------------------------|
B|-------------------------|----------------------------|
G|-2-2-2-2-2-2-2-2-2-2-2-2-|-2-2-2-2-2-2-2-2-2-2-2-2----|
D|-3-3-3-3-3-3-3-3-3-3-3-3-|-3-3-3-3-3-3-3-3-3-3-3-3----|
A|-3-3-3-3-3-3-3-3-3-3-3-3-|-3-3-3-3-3-3-3-3-3-3-3-3----|
E|-1-1-1-1-1-1-1-1-1-1-1-1-|-1-1-1-1-1-1-1-1-1-1-1-1----|


  Guitar Solo 2
e|-----------------------------------------------------|------------------------------------------|
B|---------1-----(1)------------1-(1)------------------|----------1----(1)-------------1-(1)------|
G|---------0-----(0)------------2-(2)------------------|----------0----(0)-------------2-(2)------|
D|---------2-----(2)------------3-(3)------------------|----------2----(2)-------------3-(3)------|
A|---------3-----(3)------------3-(3)------------------|----------3----(3)-------------3-(3)------|
E|-----------------------------------------------------|------------------------------------------|
|
 | Gtr II
e|-11b13-(11)---(11)-10b12-(10)-8--8----(8)\-----8b10==|=(8)b11==(8)---(8)r(8)b11-(8)\------------|
B|-------------------------------------------/10-------|------------------------------------------|
G|-----------------------------------------------------|------------------------------------------|
D|-----------------------------------------------------|------------------------------------------|
A|-----------------------------------------------------|------------------------------------------|
E|-----------------------------------------------------|------------------------------------------|

e|--------------------------------------------------------------------|
B|-1---(1)------------1-(1)-------------------------------------------|
G|-0---(0)------------2-(2)-------------------------------------------|
D|-2---(2)------------3-(3)-------------------------------------------|
A|-3---(3)------------3-(3)-------------------------------------------|
E|--------------------------------------------------------------------|
|
e|-----------------------8--------------------------------------------|
B|---------11b13-(11)-------8-11------------8-------------------------|
G|-------------------------------10b11-(10)---10b12==(10)r(10)p8------|
D|---------------------------------------------------------------10---|
A|--------------------------------------------------------------------|
E|--------------------------------------------------------------------|

e|--------------------------------------------------|
B|---1------------(1)------1-(1)--------------------|
G|---0------------(0)------2-(2)--------------------|
D|---2------------(2)------3-(3)--------------------|
A|---3------------(3)------3-(3)--------------------|
E|--------------------------------------------------|
|
e|--------------------------------------------------|
B|---------------------------------------------8-11-|
G|--------10b12==(10)r(10)p8-(8)----10b12-(10)------|
D|-(10)---------------------------------------------|
A|--------------------------------------------------|
E|--------------------------------------------------|

e|------------------------------------------------------------------------------------------------|
B|-------------------------------------------------------------3-----(3)--------------------------|
G|---------2------------------------------(2)------------------3-----(3)--------------------------|
D|---------3------------------------------(3)------------------3-----(3)--------------------------|
A|---------3------------------------------(3)------------------1-----(1)--------------------------|
E|---------1------------------------------(1)-----------------------------------------------------|
|
e|----------------------------------------------8----------------8--------------------------------|
B|------------8-11------------8-11------------8---8-11b13-(11)-----8h11p8----8--------------------|
G|-10b12-(10)------10b12-(10)------10b12-(10)-----------------------------10---10p8----10----8----|
D|----------------------------------------------------------------------------------10----10------|
A|------------------------------------------------------------------------------------------------|
E|------------------------------------------------------------------------------------------------|


e|-----------------------------------------------------------------------|
B|-------------------3---------(3)---------------------------------------|
G|--2-------(2)------3---------(3)---------------------------------------|
D|--3-------(3)------3---------(3)---------------------------------------|
A|--3-------(3)------1---------(1)---------------------------------------|
E|--1-------(1)----------------------------------------------------------|
|
e|----------------8-10-10b11==(10)r10b11==(10)--(10)r-10b11==(10)r(10)-8-|
B|--------8-10--8--------------------------------------------------------|
G|----5S9----------------------------------------------------------------|
D|-/7--------------------------------------------------------------------|
A|-----------------------------------------------------------------------|
E|-----------------------------------------------------------------------|

e|---------------------------------------------------|
B|-1-------(1)--------1----(1)-----------------------|
G|-0-------(0)--------2----(2)-----------------------|
D|-2-------(2)--------3----(3)-----------------------|
A|-3-------(3)--------3----(3)-----------------------|
E|---------------------------------------------------|
|
e|---11p8--------------------------------15b18==(15)-|
B|-----------------13---13-----13---(13)-------------|
G|-------------/14-----------------------------------|
D|---------------------------------------------------|
A|---------------------------------------------------|
E|---------------------------------------------------|

e|-----------------------------------------------------||
B|---1------------(1)-----------1--(1)-----------------||
G|---0------------(0)-----------2--(2)-----------------||
D|---2------------(2)-----------3--(3)-----------------||
A|---3------------(3)-----------3--(3)-----------------||
E|-----------------------------------------------------||
|
e|-(15)r-15-14-----------------------------------------||
B|-------------16-15--13----16p13-(13)\----16b17-(16)--||
G|-----------------------14----------------------------||
D|-----------------------------------------------------||
A|-----------------------------------------------------||
E|-----------------------------------------------------||

e|--------------------------------------------------------------------------|
B|-1--------------------(1)------------1--------(1)-------------------------|
G|-0--------------------(0)------------2--------(2)-------------------------|
D|-2--------------------(2)------------3--------(3)-------------------------|
A|-3--------------------(3)------------3--------(3)-------------------------|
E|--------------------------------------------------------------------------|
|
e|--------------------------------------------------------------------------|
B|---16b17-(16)--16b17-(16)-16b17-(16)---16b17-(16)-16b17-(16)--------------|
G|-------------------------------------------------------------17-17-(17)---|
D|--------------------------------------------------------------------------|
A|--------------------------------------------------------------------------|
E|--------------------------------------------------------------------------|

e|--------------------------------------------------------------|
B|--1-------------(1)------------1----(1)-----------------------|
G|--0-------------(0)------------2----(2)-----------------------|
D|--2-------------(2)------------3----(3)-----------------------|
A|--3-------------(3)------------3----(3)-----------------------|
E|--------------------------------------------------------------|
|
e|---------------------------------18------------------17-18-17-|
B|-16----18-16-18-----18b20-(18)----------18b20-(18)------------|
G|----17--------------------------------------------------------|
D|--------------------------------------------------------------|
A|--------------------------------------------------------------|
E|--------------------------------------------------------------|

e|------------------------------------------------------|
B|-----1----------------------(1)-----------1----(1)----|
G|-----0----------------------(0)-----------2----(2)----|
D|-----2----------------------(2)-----------3----(3)----|
A|-----3----------------------(3)-----------3----(3)----|
E|------------------------------------------------------|
|
 |                                                ~~~
e|-17p15-17-15----15------------------------------------|
B|-------------18----18-16-15-15------------------------|
G|--------------------------------17-17-15-17----17-----|
D|--------------------------------------------17--------|
A|------------------------------------------------------|
E|------------------------------------------------------|

e|--------------------------|
B|---1-----(1)--1-(1)-------|
G|---0-----(0)--2-(2)-------|
D|---2-----(2)--3-(3)-------|
A|---3-----(3)--3-(3)-------|
E|--------------------------|
|
e|--------------------------|
B|--------------------------|
G|-(17)\-----------------8--|
D|--------------------------|
A|--------------------------|
E|--------------------------|

e|---------------------------------------------------------------------------------------|
B|----------------------------------3-------(3)------------------------------------------|
G|--2-------------(2)---------------3-------(3)------------------------------------------|
D|--3-------------(3)---------------3-------(3)------------------------------------------|
A|--3-------------(3)---------------1-------(1)------------------------------------------|
E|--1-------------(1)--------------------------------------------------------------------|
|
e|---------------------------------------------------8-----------------------------------|
B|-------------------------------------------------8---11-8------------8-----------------|
G|-(8)------8---------8----10----8----10-----8--10----------10b12-(10)---10b12==10r(10)--|
D|-----8-10---8-8h10----10----10---10----10----------------------------------------------|
A|---------------------------------------------------------------------------------------|
E|---------------------------------------------------------------------------------------|

e|---------------------------------------------------------------|
B|----------------------------3---(3)----------------------------|
G|--2-------------(2)---------3---(3)----------------------------|
D|--3-------------(3)---------3---(3)----------------------------|
A|--3-------------(3)---------1---(1)----------------------------|
E|--1-------------(1)--------------------------------------------|
|
e|-----------------8---------------------------------------------|
B|-----11b13-(11)-----8-11----8----------------------------------|
G|-10----------------------10---8-11p10p8----10----8b9-(8)-------|
D|----------------------------------------10----10----------10-8-|
A|---------------------------------------------------------------|
E|---------------------------------------------------------------|

e|----------------------------|
B|--1---(1)--1--(1)-----------|
G|--0---(0)--2--(2)-----------|
D|--2---(2)--3--(3)-----------|
A|--3---(3)--3--(3)-----------|
E|----------------------------|

 |  ~~
e|----------------------------|
B|----------------------------|
G|-------------------------5--|
D|-10----------(10)\----/7----|
A|----------------------------|
E|----------------------------|

e|----------------------------------------------------------||
B|-1----------(1)------1-------------(1)--------------------||
G|-0----------(0)------2-------------(2)--------------------||
D|-2----------(2)------3-------------(3)--------------------||
A|-3----------(3)------3-------------(3)--------------------||
E|----------------------------------------------------------||
|
e|----------------8-10---10b11==(10)r====(10)p8-(8)\-----13-||
B|-------8-10-----------------------------------------------||
G|-7-8-9---------------------------------------------/14----||
D|----------------------------------------------------------||
A|----------------------------------------------------------||
E|----------------------------------------------------------||

e|------------------------------------------------------------------------|
B|------------------------------------------------------------------------|
G|------------------------------------------------------------------------|
D|-----------------3------------------------------------------3-----------|
A|------------------------------------------------------------------------|
E|---------1--1-1---------------------------------1-----1-1---------------|
|
e|----------------13-----------------------------------------------13b14--|
B|-16b18-(16)--------13-16--------------13----------------------10--------|
G|-------------------------15b17==(15)-(15)r(15)-15p13------/12-----------|
D|-----------------------------------------------------15-----------------|
A|------------------------------------------------------------------------|
E|------------------------------------------------------------------------|

e|------------------------------------------------------------------|
B|------------------------------------------------------------------|
G|------------------------------------------------------------------|
D|-------------------4--------------------------------4-------------|
A|------------------------------------------------------------------|
E|---2---2-----2-----------------------------2----2-2---------------|
|
e|-(13)-14----------14----------------------------------------------|
B|---------14-17-17----14-17b19==(17)-(17)-(17)r\-------17b19-(17)--|
G|------------------------------------------------------------------|
D|------------------------------------------------------------------|
A|------------------------------------------------------------------|
E|------------------------------------------------------------------|

e|------------------------------------------------------------------------------------------------------|
B|------------------------------------------------------------------------------------------------------|
G|------------------------------------------------------------------------------------------------------|
D|--5----------5--5----------5------5-----------5----------5-----------5--------5-------------5-5---5---|
A|--5----------5--5----------5------5-----------5----------5-----------5--------5-------------5-5---5---|
E|--3----------3--3----------3------3-----------3----------3-----------3--------3-------------3-3---3---|
|
e|----------------------------------------15---------------------------18----------15------------------------|
B|-18b20-(18)-18b20-(18)---18b20==(18)r18----18-15h18p15---15-15-18-15----15-18-15----15-18b20==(18)---(18)r-|
G|-------------------------------------------------------7---------------------------------------------------|
D|-----------------------------------------------------------------------------------------------------------|
A|-----------------------------------------------------------------------------------------------------------|
E|-----------------------------------------------------------------------------------------------------------|

e|-------------------------------||-----------------------|
B|--------------------------1--1-||-(1)------(1)----------|
G|--------------------------2--0-||-(0)------(0)---5------|
D|----------5---------------3--2-||-(2)------(2)---5--5---|
A|----------5---------------3--3-||-(3)------(3)---3--5---|
E|----------3--------------------||-------------------3---|
|
 |                    ~~~~~
e|-------------------------------||-----------------------|
B|-18b20==(18)------(18)r--------||-----------------------|
G|-------------------------------||-----------------------|
D|-------------------------------||-----------------------|
A|-------------------------------||-----------------------|
E|-------------------------------||-----------------------|

e|-------------------|-------------------|----------------------|
B|--------------1--1-|-(1)------1---3----|----------------1--1--|
G|--------------2--0-|-(0)------0---3--2-|-(2)------(2)---2--0--|
D|-(5)------5---3--2-|-(2)------2---3--3-|-(3)------(3)---3--2--|
A|-(5)------5---3--3-|-(3)------3---1--3-|-(3)------(3)---3--3--|
E|-(3)------3--------|-----------------1-|-(1)------(1)---------|

                                              PM-------------------------|
e|---------------------|---------------------|----------------------------|
B|-(1)------(1)---1--3-|-(3)------(3)--------|----------------------------|
G|-(0)------(0)---0--0-|-(0)------(0)---0----|-2-2-2-2-2-2-2-2-2-2-2-2----|
D|-(2)------(2)---2--0-|-(0)------(0)---0----|-3-3-3-3-3-3-3-3-3-3-3-3----|
A|-(3)------(3)---3----|---------------------|-3-3-3-3-3-3-3-3-3-3-3-3----|
E|-------------------3-|-(3)------(3)------0-|-1-1-1-1-1-1-1-1-1-1-1-1----|


[Outro]

  PM----------------------------------------------------------------|
e|-------------------------|-----------------------------------------|
B|-------------------------|-----------------------------------------|
G|-2-2-2-2-2-2-2-2-2-2-2-2-|-(2)----------------------(2)-----5------|
D|-3-3-3-3-3-3-3-3-3-3-3-3-|-(3)----------------------(3)-----5--5---|
A|-3-3-3-3-3-3-3-3-3-3-3-3-|-(3)----------------------(3)-----3--5---|
E|-1-1-1-1-1-1-1-1-1-1-1-1-|-(1)----------------------(1)--------3---|
|
 |   Gtr II
e|-------------------------|---------------------------------------|
B|-------------------------|-------11b13==(11)--(11)-(11)r\--------|
G|-------------------------|---------------------------------------|
D|-------------------------|---------------------------------------|
A|-------------------------|---------------------------------------|
E|-------------------------|---------------------------------------|

e|----------------------------------------------------------|
B|---------------------------------------------------1--1---|
G|---------------------------------------------------2--0---|
D|-(5)------------------------------------5----------3--2---|
A|-(5)------------------------------------5----------3--3---|
E|-(3)------------------------------------3-----------------|
|
e|-----------------8----------------------------------------|
B|------11b13-(11)---8-11----8-8----------------------------|
G|------------------------10-----10b12==(10)r(10)p8---------|
D|----------------------------------------------------------|
A|----------------------------------------------------------|
E|----------------------------------------------------------|

e|--------------------------------------|
B|-(1)----------------------1----3------|
G|-(0)----------------------0----3----2-|
D|-(2)----------------------2----3----3-|
A|-(3)----------------------3----1----3-|
E|------------------------------------1-|
|
e|------8-11b13-(11)--11-11p8---(8)\----|
B|--------------------------------------|
G|--------------------------------------|
D|--------------------------------------|
A|--------------------------------------|
E|--------------------------------------|

e|---------------------------------------------|
B|----------------------------------------1--1-|
G|-(2)-----------------------------(2)----2--0-|
D|-(3)-----------------------------(3)----3--2-|
A|-(3)-----------------------------(3)----3--3-|
E|-(1)-----------------------------(1)---------|
|
 |                                  ~~~~
e|-----------------18--------------------------|
B|-----18b20-(18)-----18b20==18-18-18r\--------|
G|---------------------------------------------|
D|---------------------------------------------|
A|---------------------------------------------|
E|---------------------------------------------|

e|-----------------------------|-------------------------|
B|-(1)-----------(1)-----1---3-|-(3)---------(3)---------|
G|-(0)-----------(0)-----0---0-|-(0)---------(0)----0----|
D|-(2)-----------(2)-----2---0-|-(0)---------(0)----0----|
A|-(3)-----------(3)-----3-----|-------------------------|
E|---------------------------3-|-(3)---------(3)-------0-|
|
e|-----------------------------|-------------------------|
B|--1--1-1-1-1-1--1--1-1-1-1---|--3---3-3--3--3---3-3--3-|
G|--0--0-0-0-0-0--0--0-0-0-0-0-|--0---0-0--0--0---0-0--0-|
D|--2--2-2-2-2-2--2--2-2-2-2-0-|--0---0-0--0--0---0-0--0-|
A|--3--3-3-3-3-3--3--3-3-3-3---|-------------------------|
E|-----------------------------|--3---3-3--3--3---3-3--3-|


                 H.=H
          PM--------------------------------------------|
e|-------------------------------------------------------|
B|-------------------------------------------------------|
G|---------2--2-2--2-2--2-----2--2--2--2---------2---2---|
D|---------3--3-3--3-3--3-----3--3--3--3---------3---3---|
A|---------3--3-3--3-3--3-----3--3--3--3---------3---3---|
E|---------1--1-1--1-1--1-----1--1--1--1---------1---1---|
|
e|-11b13-(11)-----11-8-11----11----11-13-11b12-(11)----|
B|------------------------10----13------------------13-|
G|-----------------------------------------------------|
D|-----------------------------------------------------|
A|-----------------------------------------------------|
E|-----------------------------------------------------|

e|------------------------------------------------------:
B|--1-----------------------------(1)-------------------:
G|--0-----------------------------(0)-------------------:
D|--2-----------------------------(2)-------------------:
A|--3-----------------------------(3)-------------------:
E|------------------------------------------------------:
|
e|-13b15==(13)---(13)rS8----------------8---------------:
B|-----------------------8-11b13-(11)-----8-11----8-----:
G|---------------------------------------------10---8---:
D|------------------------------------------------------:
A|------------------------------------------------------:
E|------------------------------------------------------:

e|----------------------------------------*|
B|-(1)------------------------(1)---------*|
G|-(0)------------------------(0)---------*|
D|-(2)------------------------(2)---------*|
A|-(3)------------------------(3)---------*|
E|----------------------------------------*|
|
e|----------------------------------------*|
B|----------------------------------------*|
G|-10b12-(10)-10-8------------------------*|
D|-----------------10-10p8----------------*|
A|-------------------------10p=8s6--------*|
E|---------------------------------8------*|



************************************

| (n)  Ghost note
| h    Hammer-on
| p    Pull-off
| b    Bend
| /    Slide up
| s    Slap
| PM   Palm Mute
| ~~   Vibrato
 
************************************
Suggest correction
Creating personal tab
Creating personal tab
You can edit any tab online and save it as your Personal.

You can edit, replace or remove any tab part or add personal notes – all changes will be seen only by you.

Personal tabs can be accessed anytime from any device, even offline.
Learn more »
comments
print report bad tab
6 comments total. Showing first comments.
+1 reply
Evil_Jester_666 10 Feb 20, 2008 08:53 AM

Good Job, 5*

+3 reply
little_angus 10 Oct 26, 2008 07:00 AM

good tab
and great song

+2 reply
Mainer 959 May 19, 2010 04:22 PM

ha, My dad suggested this to me.

guest
You may want to rate the tab now too:
select rating
Wanna post a correction for this tab? Suggest correction