Oops, an error
Loading. Please wait.
We have an official Ride On tab made by UG professional guitarists. Check out the tab »
×
by AC/DC
208 views 27 this week
no commentswrite comment
1 2 3 4 5
x 4
add to favorites
×
Save as Personal and add changes to this tab that will be seen only by you. Learn more ›
×
You can save this tab as Personal to edit and correct it or add notes. All changes will be seen only by you. Learn more »
launch autoscroll
font size
0
reset
transpose
0
reset
simplify chords
display chords
guitar tuner
backing track
0:00
0:00
edit
Autoscroll
slow
fast
+/-
esc
set tempo
stop
Strumming Is this strumming pattern correct? Yes No
Verse 53 bpm
1
&
2
&
3
&
Listen
***********************************

[Chords]

    EADGBe
C   x32010
F   133211
F/C x3321x
Bb  x13331
G5  355xxx
C5  x355xx
F5  13xxxx

***********************************

[Intro]
 C F x4

[Verse 1]
       C            F/C      C  F/C
It's another lonely evening
    F/C           Bb         F/C  Bb
In another lonely town
      G5                 C5
But I ain't too young to worry
      Bb                F
And I ain't too old to cry
       C             F/C     C  F/C
When a woman gets me down

      C           F/C        C  F/C
Got another empty bottle
     F/C          Bb         F/C  Bb
And another empty bed
      G5              C5
Ain't too young to admit it
        Bb                F
And I'm not too old to lie
           C            F/C  C  F/C
I'm just another empty head

[Pre-Chorus]
e |-----------------------------------------|
B |-----------------------------------------|
G |-----------------------------------------|
D |----------------------3~~-----------3~~--|
A |-----------------------------------------|
E |---------------1-1-1---------1-1-1-------|

That's why I'm lonely

e |----------------------------------|
B |----------------------------------|
G |----------------------------------|
D |--------------4~~-----------4~~---|
A |----------------------------------|
E |-------2-2-2---------2-2-2--------|

I'm so lonely

        G5 x13
e |-------------------------------------------|
B |-------------------------------------------|
G |-------------------------------------------|
D |-----5--5--5--5--5--5--5--5--5--5--5--5--5-|
A |-----5--5--5--5--5--5--5--5--5--5--5--5--5-|
E |-----3--3--3--3--3--3--3--3--3--3--3--3--3-|

But I know what I'm going to do...

[Chorus]
N.C.      F    C
I'm gonna ride on
F    G
Ride on
 F    C
(Ride on) Standing on the edge of the road
 F    G
(Ride on) Thumb in the air
 F    C                             F  G
(Ride on) One of these days I'm gonna change my evil ways
F5 F5 F5 F5 F5 F5 F5 F5 F5 F5 F5 F5 F5
  Till then I'll just keep riding on

[Solo 1]
(1:50)
e |-----------------------------15------------------------------------|
B |-16b18--16-13----15b16b15b16-------16b17-13-16----17p13------------|
G |-----------------------------------------------14------------------|
D |-----------------------------------------------------------15\13~~-|
A |-------------------------------------------------------------------|
E |-------------------------------------------------------------------|

[Verse 2]
C             F/C       C  F/C
Broke another promise
      F/C            Bb    F/C  Bb
And I broke another heart
      G5                 C5
But I ain't too young to realize
       Bb               F
That I ain't too old to try
       C                F/C   C  F/C
Try to get back to the start

N.C.      C               F/C       C  F/C
And it's another red-light nightmare
        F/C             Bb      F/C  Bb
Woah, another red-light street
      G5               C5
And I ain't too old to hurry
        Bb               F
Cause I ain't too old to die
    C          F/C         C  F/C
But I sure am hard to beat

[Pre-Chorus]
e |----------------------------------|
B |----------------------------------|
G |----------------------------------|
D |---------------3~~-----------3~~--|
A |----------------------------------|
E |--------1-1-1---------1-1-1-------|

But I'm lonely
e |-----------------------------------|
B |-----------------------------------|
G |-----------------------------------|
D |---------------4~~-----------4~~---|
A |-----------------------------------|
E |--------2-2-2---------2-2-2--------|

Lord I'm lonely
        G5 x13
e |-------------------------------------------|
B |-------------------------------------------|
G |-------------------------------------------|
D |-----5--5--5--5--5--5--5--5--5--5--5--5--5-|
A |-----5--5--5--5--5--5--5--5--5--5--5--5--5-|
E |-----3--3--3--3--3--3--3--3--3--3--3--3--3-|

            What am I gonna do?

[Chorus]
N.C.      F    C
I'm gonna ride on
F    G
Ride on
 F    C
(Ride on) Got myself a one-way ticket
 F    G
(Ride on) Goin' the wrong way
 F    C
(Ride on) Gonna change my evil ways
 F    G                     G
(Ride on)  one of these days
F5 F5 F5 F5 F5 F5 F5 F5 F5 F5 F5 F5 F5
       One of these days

[Solo 2]
Check out "Ride On Solo v3" by suicidehummer 
for a great tab of the main solo!

[Chorus]
F    C
Ride on
F    G
Ride on
          F    C
I'm gonna ride on
F    C
Ride on, Lookin' for a truck
F    C
Ride on
F    G             F
Ride on, Keep on riding
F5   F5   F5   F5   F5   F5   F5   F5   F5   F5   F5   F5   F5
      Ridin' on and on and on and on and on and on and on

[Outro]
 F    C
(Ride on)
 F    G
(Ride on) Have myself a good time
 F    C
(Ride on) Mmm, yeah
 F    G
(Ride on) Ride, ride, ride
 F    C
(Ride on)One of these days
 F    G
(Ride on)One of these days...

***********************************

| ~   Vibrato 
| b   Bend
| p   Pull-off
| \   Slide down

***********************************
Suggest correction
Creating personal tab
Creating personal tab
You can edit any tab online and save it as your Personal.

You can edit, replace or remove any tab part or add personal notes – all changes will be seen only by you.

Personal tabs can be accessed anytime from any device, even offline.
Learn more »
comments
print report bad tab
guest
You may want to rate the tab now too:
select rating
Wanna post a correction for this tab? Suggest correction