Oops, an error
Loading. Please wait.

Rising Power Tab

version 1
version 1

Whole song

Interactive

3,108 views 12 this week
3 commentsread comments
1 2 3 4 5
accurate
x 4
add to favorites
launch autoscroll
font size
0
reset
how to read this tab
guitar tuner
Tab Pro tools
  • play this tab
  • loop segment
  • change instrument
  • show fretboard
  • metronome
×
Best way to learn
"Rising Power"
Autoscroll
slow
fast
+/-
esc
set tempo
stop
Contributor
AC/DC
Rising Power
Album:Flick Of The Switch(1983)
Written by Angus & Malcolm Young's and Brian Johnson
Tab by Voytazz

At least full tab with solo and outro! 

Intro & Verse
    D      D       A9A9 G
E-----------------------------|
B-----------------------------|
G------4------4-4--2-2-----4--|   Repeat Riff 
D------4------4-4--2-2--5--4--|     x8
A--5p2-2--5p2-2-2--0-0--5--2--|
E-----------------------3-----|
(instead the 5p2 you can play D chord 
 without finger on 2 fret on 1st string)

Bridge  
               
E-----------------------------------------------------|
B-----------------------------------------------------|
G-4-4-2-4---------------------------------------------|    
D-4-4-2-4--4-4-2-4---------4--------------------------|x1     
A-2-2-0-2--4-4-2-4---------4repeat chord about 5 times|
E----------2-2-0-2---------2--------------------------|


Chorus
          G                 G
E-----------------|--------------------------|
B-----3-----------|-----3-------3------------|
G-4-2-2-4---2-----|-4-2-2-4---2-2------------|    
D-4-2-0-4-5-2-2---|-4-2-0-4-5-2-0------------| x2    
A-2-0---2-5-0-2---|-2-0---2-5-0--------------|
E---------3---0---|---------3----------------|
 "Rising Power...  Rising Power ..." 

Solo:


Guitar 1 Malcolm


E--------|-----------|--------------|
B--------|-----------|--------------|
G--7--4--|--7--4--4--|-----------4--| Play this
D--7--4--|--7--4--4--|--7--7--5--4--| 3 times.
A--5--2--|--5--2--2--|--7--7--5--2--|
E--------|-----------|--5--5--3-----|

E--------|-----------|-------------------------|
B--------|-----------|-------------------------|
G--7--4--|--7--4--4--|--4-4-4-----------2-2-2--| 
D--7--4--|--7--4--4--|--4-4-4---5-5-5---2-2-2--| 
A--5--2--|--5--2--2--|--2-2-2---5-5-5---0-0-0--|
E--------|-----------|----------3-3-3----------|

E--------------------|-------------------------|
B----------3---------|-------------------------|
G----4--2--2--2------|--4-4-4-----------2-2----| Play this 
D----4--2--0--2------|--4-4-4---5-5-5---2-2----| 4 times.
A----2--0-----0------|--2-2-2---5-5-5---0-0----|
E--------------------|----------3-3-3----------|


Guitar 2 Angus


E-------------|-----------------------------|--------7--------------|
B-------------|-----------------------------|--10-10-----10-10------|
G--------7~~--|--------7--9--7-----7h9p7~~--|------------------7~~--|
D--7--9-------|--7--9-----------9-----------|-----------------------|
A-------------|-----------------------------|-----------------------|
E-------------|-----------------------------|-----------------------|

E--7--------------------|--7-7~~-------7-10-12h14----12-12----------|
B-----10----------------|---------7-10---------------------15-12~~--|
G---------7-------------|-------------------------------------------|
D------------9--7--9~~--|-------------------------------------------|
A-----------------------|-------------------------------------------|
E-----------------------|-------------------------------------------|

E--------------19-19-\-\-\-------|----------------------------------|
B--15-15-15-----------\-\-\------|----------------------------------|
G--19-19-19------------\-\-\-----|--9b--(bend it)-----9b--(11)--9---|
D-----------------------\-\-\----|-----(slowly up)------------------|
A------------------------\-\-\---|-------(to 11)--------------------|
E-------------------------\-\-\--|----------------------------------|

E----------------------|--------------------|-----------------------|
B----------------------|--------------------|----------12-12-12-12--|
G----------------------|--------------------|-----9-9---------------|
D--9--12--9--12---9~~--|---------9-9--12-\--|--12-------------------|
A----------------------|--12-12-------------|-----------------------|
E----------------------|--------------------|-----------------------|

E--10-------------|-------------------------------------------------|
B-----12-12~~--\--|--12-12------12------12------10------12------10--|
G-----------------|-----------------11------11--------------11------|
D-----------------|-------------------------------------------------|
A-----------------|-------------------------------------------------|
E-----------------|-------------------------------------------------|

E-----------------------|----------------------10----12----12-------|
B-----------------------|----------10----12-------------------------|
G--11-9-----------------|-----9-------------------------------------|
D-------12-9-9~~----12--|--12---------------------------------------|
A-----------------------|-------------------------------------------|
E-----------------------|-------------------------------------------|

E--14-17-14~~--\--|----19----19~~~~---------------------------------|
B-----------------|-------------------------------------------------|
G-----------------|-------------------------------------------------|
D-----------------|-------------------------------------------------|
A-----------------|-------------------------------------------------|
E-----------------|-------------------------------------------------|


         
Outro:

Guitar 1


E---------------------|-------------------------|
B----------3----------|-------------------------|
G----4--2--2--2--/----|--4-4-4-----------2-2----| Play this 
D----4--2--0--2--/----|--4-4-4---5-5-5---2-2----| 4 times.
A----2--0-----0--/----|--2-2-2---5-5-5---0-0----|
E---------------------|----------3-3-3----------|

E---------------------|-------------------------|
B---------------------|-------------------------|
G----------4----------|---------4---------------|
D----------4----------|---------4---------------|
A----------2----------|---------2---------------|
E---------------------|-------------------------|

Guitar 2


E--7-7----7-7-7----7-7-7----12--|--10-7------------7-7-7---10-14-7--|
B-------------------------------|-------10~~----10------------------|
G-------------------------------|-----------------------------------|
D-------------------------------|-----------------------------------|
A-------------------------------|-----------------------------------|
E-------------------------------|-----------------------------------|

E--10-7----7-------------7--7~~--\--|--7~~--10--12--14-14--14-14~~--|
B------------10-10----10------------|-------------------------------|
G-----------------------------------|-------------------------------|
D-----------------------------------|-------------------------------|
A-----------------------------------|-------------------------------|
E-----------------------------------|-------------------------------|

E--14--12--10--12--14----14--14p12p10------7~~--7~~------12--12~~---|
B-------------------------------------------------------------------|
G-------------------------------------------------------------------|
D-------------------------------------------------------------------|
A-------------------------------------------------------------------|
E-------------------------------------------------------------------|

E--10--7~~--\----7~~--|--7---------7----7---------------------------|
B---------------------|-----7--10----------7--10--7-----------------|
G---------------------|------------------------------9p7h9--7-------|
D---------------------|---------------------------------------------|
A---------------------|---------------------------------------------|
E---------------------|---------------------------------------------|




Order:
Intro&Verse x8
Bridge x1
Chorus x2
Verse x4
Bridge x1
Chorus x2
Solo
Bridge x1
Chorus x2
Outro
AC/DC and Angus make this world better Hail to Ac/Dc
Check for Voytazz tabs.
comments
print report bad tab
3 comments total.
0 reply
mikedeit wrote on June 22 2005, 12:00 am

It's about time somebody decided to tab out Rising Power with the solo! Thank you very much, and yes, all hail AC/DC.

0 reply
playinbass1432 wrote on March 26 2008, 01:07 pm

pretty good

0 reply
lefthandguitar wrote on September 1 2008, 09:15 am

really good but outro solo is a little messed up other than that it is perfect.

I want to post or [tab]
guest
You may want to rate the tab now too:
select rating
Please do not post tabs as comments. Select "correction" instead!