Oops, an error
Loading. Please wait.

Rock N Roll Damnation Tab

version 2
version 2

Whole song

Interactive

29,259 views 48 this week
3 commentsread comments
1 2 3 4 5
x 9
add to favorites
launch autoscroll
font size
0
reset
how to read this tab
guitar tuner
×
Best way to learn
"Rock N Roll Damnation"
Autoscroll
slow
fast
+/-
esc
set tempo
stop
Tuning: Standard

    A                   A
e|-----------------|--------------------|
B|-----------8-----|-------------7------|
G|--------9--------|----------7---------|
D|-----7-----------|-------7------------|
A|--0--------------|----0---------------|
E|-----------------|--------------------|

  A                    A
e|-----------------|--------------------|
B|-----------8-----|-------------7------|
G|--------9--------|----------7---------|
D|-----7-----------|-------7------------|
A|--0--------------|----0---------------|
E|-----------------|--------------------|

  A                    A
e|-----------------|--------------------|
B|-----------8-----|-------------7------|
G|--------9--------|----------7---------|
D|-----7-----------|-------7------------|
A|--0--------------|----0---------------|
E|-----------------|--------------------|

   A                   A
e|-----------------|--------------------|
B|-----------8-----|-------------7------|
G|--------9--------|----------7---------|
D|-----7-----------|-------7------------|
A|--0--------------|----0---------------|
E|-----------------|--------------------|

e|--------------------------------------|
B|------3--3--2----3--3--2--------------|
G|---2--2--2--2----2--2--2-------2------|
D|---2--4--4--2----4--4--2-------2------|
A|---0----------------------3-4--0------|
E|--------------------------------------|

e|--------------------------------------|
B|------3--3--2----3--3--2--------------|
G|---2--2--2--2----2--2--2-------2------|
D|---2--4--4--2----4--4--2-------2------|
A|---0----------------------3-4--0------|
E|--------------------------------------|

e|--------------------------------------|
B|------3--3--2----3--3--2--------------|
G|---2--2--2--2----2--2--2-------2------|
D|---2--4--4--2----4--4--2-------2------|
A|---0----------------------3-4--0------|
E|--------------------------------------|

e|--------------------------------------|
B|------3--3--2----3--3--2--------------|
G|---2--2--2--2----2--2--2-------2------|
D|---2--4--4--2----4--4--2-------2------|
A|---0----------------------3-4--0------|
E|--------------------------------------|

e|---3----2-------------------|
B|---3----3------3--3--2------|
G|---0----2--2---2--2--2------|
D|---0----0--2---4--4--2------|
A|---x----x--0----------------|
E|---3----2-------------------|

e|---3----2-------------------|
B|---3----3------3--3--2------|
G|---0----2--2---2--2--2------|
D|---0----0--2---4--4--2------|
A|---x----x--0----------------|
E|---3----2-------------------|

e|---3----2-------------------|
B|---3----3------3--3--2------|
G|---0----2--2---2--2--2------|
D|---0----0--2---4--4--2------|
A|---x----x--0----------------|
E|---3----2-------------------|

e|------------------|------------------|
B|------------------|------------------|
G|---5---5-5-5-5-5--|------------------|
D|---5---5-5-5-5-5--|---5---5-5-5-5-5--|
A|---3---3-3-3-3-3--|---5---5-5-5-5-5--|
E|------------------|---3---3-3-3-3-3--|

e|--------------------------------------|
B|------3--3--2----3--3--2--------------|
G|---2--2--2--2----2--2--2-------2------|
D|---2--4--4--2----4--4--2-------2------|
A|---0----------------------3-4--0------|
E|--------------------------------------|

e|--------------------------------------|
B|------3--3--2----3--3--2--------------|
G|---2--2--2--2----2--2--2-------2------|
D|---2--4--4--2----4--4--2-------2------|
A|---0----------------------3-4--0------|
E|--------------------------------------|

e|--------------------------------------|
B|------3--3--2----3--3--2--------------|
G|---2--2--2--2----2--2--2-------2------|
D|---2--4--4--2----4--4--2-------2------|
A|---0----------------------3-4--0------|
E|--------------------------------------|

e|---3----2-------------------|
B|---3----3------3--3--2------|
G|---0----2--2---2--2--2------|
D|---0----0--2---4--4--2------|
A|---x----x--0----------------|
E|---3----2-------------------|

e|---3----2-------------------|
B|---3----3------3--3--2------|
G|---0----2--2---2--2--2------|
D|---0----0--2---4--4--2------|
A|---x----x--0----------------|
E|---3----2-------------------|

e|---3----2-------------------|
B|---3----3------3--3--2------|
G|---0----2--2---2--2--2------|
D|---0----0--2---4--4--2------|
A|---x----x--0----------------|
E|---3----2-------------------|

e|------------------|------------------|
B|------------------|------------------|
G|---5---5-5-5-5-5--|------------------|
D|---5---5-5-5-5-5--|---5---5-5-5-5-5--|
A|---3---3-3-3-3-3--|---5---5-5-5-5-5--|
E|------------------|---3---3-3-3-3-3--|
   A                   A
e|-----------------|--------------------|
B|-----------8-----|-------------7------|
G|--------9--------|----------7---------|
D|-----7-----------|-------7------------|
A|--0--------------|----0---------------|
E|-----------------|--------------------|
   A                   A
e|-----------------|--------------------|
B|-----------8-----|-------------7------|
G|--------9--------|----------7---------|
D|-----7-----------|-------7------------|
A|--0--------------|----0---------------|
E|-----------------|--------------------|
   A                   A
e|-----------------|--------------------|
B|-----------8-----|-------------7------|
G|--------9--------|----------7---------|
D|-----7-----------|-------7------------|
A|--0--------------|----0---------------|
E|-----------------|--------------------|

[Then play the outro]
e|--12-12-12-12-12-10-12-12-12--|
B|------------------------------|
G|------------------------------|
D|------------------------------|
A|------------------------------|
E|------------------------------|

e|--------17-17-17-17-17-17-17-17-17--|
B|--------17-17-17-17-17-17-17-17-17--|
G|---19b------------------------------|
D|------------------------------------|
A|------------------------------------|
E|------------------------------------|


e|--------17-17-17-17-17-17-17-17-17--|
B|--------17-17-17-17-17-17-17-17-17--|
G|---19b------------------------------|
D|------------------------------------|
A|------------------------------------|
E|------------------------------------|


e|--------17-17-17-17-17-17-17-17-17--|
B|--------17-17-17-17-17-17-17-17-17--|
G|---19b------------------------------|
D|------------------------------------|
A|------------------------------------|
E|------------------------------------|

e|---20~-17-------17-17-17-17-17-17-17-17--|
B|-----------20---17-17-17-17-17-17-17-17--|
G|-----------------------------------------|
D|-----------------------------------------|
A|-----------------------------------------|
E|-----------------------------------------|

[Then the ending chords]
e|-----------------------|
B|-----------------------|
G|--2--2--2----------x---|string noise
D|--2--2--2----------x---|
A|--0--0--0----------x---|
E|-----------------------|

************************************

| x  Dead note
| b  Bend
| ~  Vibrato

************************************
Suggest correction
comments
print report bad tab
3 comments total.
0 reply
flamingmarble27 90 Feb 17, 2006 02:21 PM

very good, except i think it's supposed to be tuned down half a step

0 reply
AngusVANRHOADs 10 Sep 25, 2010 11:42 AM

i always thought this song was down 1/4 of a step

0 reply
AngusLennon 10 Dec 09, 2010 12:42 PM

This part:

e------------------|------------------|
B------------------|------------------|
G---5---5-5-5-5-5--|------------------|
D---5---5-5-5-5-5--|---5---5-5-5-5-5--|
A---3---3-3-3-3-3--|---5---5-5-5-5-5--|
E------------------|---3---3-3-3-3-3--|

Should Be:
e------------|----------------|
B-3-3-3-3----|----------------|
G-2-2-2-2----|-1-1-1-1--------|
D-0-0-0-0----|-2-2-2-2--------|
A------------|-2-2-2-2--------|
E------------|-0-0-0-0--------|

guest
You may want to rate the tab now too:
select rating
Wanna post a correction for this tab? Suggest correction