Oops, an error
Loading. Please wait.

Rock N Roll Dream Bass Tab

version 1
version 1

Whole song

Interactive

1,216 views 1 this week
1 commentread comment
1 2 3 4 5
please rate
add to favorites
launch autoscroll
font size
0
reset
guitar tuner
Tab Pro tools
  • play this tab
  • loop segment
  • change instrument
  • show fretboard
  • metronome
×
Best way to learn
"Rock N Roll Dream"
Autoscroll
slow
fast
+/-
esc
set tempo
stop
Contributor
Difficulty
intermediate
-------------------------------------------------------------------------------
			     Rock'n'Roll dream - AC/DC
-------------------------------------------------------------------------------

Tabbed By : Basene
e-mail: kristiano4@inbox.lv

I don't know how to excactly write those stripes for rythm, so here might be some 
is my first tab, so, enjoy it!!! Listen song first, and then play, because it's
some rythmic mistakes.

Tuning: Standard (EADG)

G|----------------|----------------|----------------|----------------|----------------|
D|------3---------|----------------|----------------|-6--------------|----------------|
A|--1-3-----------|1---------------|-8---8---6-8-6-8|-----6-6-8-6-8--|-8---8---6-8-6-8|
E|1-------1-------|------1---------|----------------|----------------|----------------|

G|----------------|----------------|----------------|----------------|----------------|
D|----------------|----------------|----------------|-6--------------|----------------|
A|-5-6-------6-8--|8---------------|----------------|----6-----------|----------------|
E|-----4-6--------|----------------|1--1----1--1----|--------1--1----|1--1----1--1----|

                              Play 3x
G|----------------|----------------||----------------|----------------|----------------|
D|----------------|----------------||----------------|----------------|----------------|
A|-5-6-------6-8--|8---------------||-----1----------|------6---------|-----1----------|
E|-----4-6--------|----------------||1---------------|4---------------|1---------------|

             Play 2x
G|----------------||----------------|----------------|----------------|
D|----------------||----------------|----------------|----------------|
A|----4-6---------||-----1----------|------6---------|----------------|
E|4-6-------------||1---------------|4---------------|1---------------|

All is same all time but then it comes to this:
G|-----------------|
D|-----------------|
A|8---6-5--4-3-----|
E|-----------------|
comments
We did not receive enough feedback on this tab! Please rate:
print report bad tab
1 2 3 4 5
1 comment total.
0 reply
Dback139 wrote on March 1 2010, 07:17 pm

Hey dude, not bad for your first tab...I applaud your effort. You do have some minor mistakes here and there, I think they can easily be corrected.

Try this during the bridge
G|-----------------|
D|-----------------|
A|8---6-5--4-6-----|
E|-----------------|

Otherwise, the timing can easily be figured out for anyone actually listening to the bass. I award you 4 stars for your first decent tab.

I want to post or [tab]
guest
You may want to rate the tab now too:
select rating
Please do not post tabs as comments. Select "correction" instead!