Oops, an error
Loading. Please wait.

Rock N Roll Train Tab

version 2
version 2
59,175 views 9 this week
6 commentsread comments
1 2 3 4 5
excellent!
x 11
add to favorites
launch autoscroll
font size
0
reset
how to read this tab
guitar tuner
Tab Pro tools
  • play this tab
  • loop segment
  • change instrument
  • show fretboard
  • metronome
×
Best way to learn
"Rock N Roll Train"
Autoscroll
slow
fast
+/-
esc
set tempo
stop
Contributor
Difficulty
advanced
Song: Rock N Roll Train
Band: AC/DC
Album: Black Ice
Tabbed by: J.Dawg
Tuning: Standard


This is a very cool song. It should be
pretty accurate. I only know Angus Young`s part though,
so here it is. 




Intro:    X4
e|-----------------------------------------------|
b|---3----3----3--------3-3-3-3-3-3-3-3-3--------|
g|-2-2--2-2----2--------2-0-0-0-0-2-2-2-2-2-2-2--|
d|-2-0--2-0----0--------2-0-0-0-0-2-2-2-2-2-2-2--|
a|-0-0--0-0----0----------x-x-x-x---------0-0-0--|
e|------------------------3-3-3-3----------------|




Verse 1:  X2
e|---------------------------------|
b|---3---3----3------3---3---------|
g|-2-2---2----2----2-2---2----2----|
d|-2-4-2-4----4----2-4-2-4----2----|
a|-0-0-0-0----0----0-0-0-0----0----|
e|---------------------------------|




Pre Chorus 1:   X3                 X1
e|--------------------------||------------------|
b|-3-----1-1-3-3-3-3-3-3----||-3-----1-1-3-3----|
g|-2-2-2-0-0-0-0-2-2-0-2----||-2-2-2-0-0-0-0-0--|
d|-0-2-2-2-2-0-0-0-0-0-0----||-0-2-2-2-2-0-0-0--|
a|--------------------------||------------------|
e|--------------------------||------------------|



                                  X1
e|--------------------------------------|
b|-3-3-3-3----3-3-3----3-3-3-3----3-----|
g|-2-2-2-2----2-2-2----2-2-2-2----2-----|
d|-0-0-0-0----0-0-0----0-0-0-0----0-----|
a|--------------------------------------|
e|--------------------------------------|




Chorus 1:   X4
e|------------------------3-3------------------------|
b|---3----3----3----------3-3----3-3------3----------|
g|-2-2--2-2----2----------0-0----2-2------2-2---2----|
d|-2-0--2-2----0----------0-0----0-0------0-2-2-2----|
a|-0-0--0-0----0----------x-x----x-x--------0-0-0----|
e|------------------------3-3----2-2-----------------|






Verse 2:  X2
e|---------------------------------|
b|---3---3----3------3---3---------|
g|-2-2---2----2----2-2---2----2----|
d|-2-4-2-4----4----2-4-2-4----2----|
a|-0-0-0-0----0----0-0-0-0----0----|
e|---------------------------------|






Pre Chorus 2:   X3                 X1
e|--------------------------||------------------|
b|-3-----1-1-3-3-3-3-3-3----||-3-----1-1-3-3----|
g|-2-2-2-0-0-0-0-2-2-0-2----||-2-2-2-0-0-0-0-0--|
d|-0-2-2-2-2-0-0-0-0-0-0----||-0-2-2-2-2-0-0-0--|
a|--------------------------||------------------|
e|--------------------------||------------------|





                                   X1
e|--------------------------------------|
b|-3-3-3-3----3-3-3----3-3-3-3----3-----|
g|-2-2-2-2----2-2-2----2-2-2-2----2-----|
d|-0-0-0-0----0-0-0----0-0-0-0----0-----|
a|--------------------------------------|
e|--------------------------------------|




Chorus 2:   X4
e|------------------------3-3------------------------|
b|---3----3----3----------3-3----3-3------3----------|
g|-2-2--2-2----2----------0-0----2-2------2-2---2----|
d|-2-0--2-2----0----------0-0----0-0------0-2-2-2----|
a|-0-0--0-0----0----------x-x----x-x--------0-0-0----|
e|------------------------3-3----2-2-----------------|





Solo:   This sounds really close to the real thing, so it should be pretty accurate.
e|---------------------------------------------------|
b|-\\\\----3b5~~~~-0---0-----------------------------|
g|-\\\\----------------------------5--7b9~~~~7b9~~~~-|
d|-\\\\--------------7---5-7~~~~~--------------------|
a|-\\\\----------------------------------------------|
e|---------------------------------------------------|




e|-----------------------------------8----|
b|------------------------8---8-10-8------|
g|-7p5--------5-~~~~--8h9---9-------------|
d|-----7~~~~--5-~~~~----------------------|
a|----------------------------------------|
e|----------------------------------------|




e|-8b~~~~-8b~~~~----------12~~~~-12~~~~-12~~~~-|
b|---------------10~~~~---13~~~~-13~~~~-13~~~~-|
g|----------------------x----------------------|
d|----------------------x----------------------|
a|----------------------x----------------------|
e|---------------------------------------------|




e|-10b11-10p8-----------------|
b|------------10-10~~~~~~~~~~-|
g|----------------------------|
d|----------------------------|
a|----------------------------|
e|----------------------------|






Verse 3:  X2
e|---------------------------------|
b|---3---3----3------3---3---------|
g|-2-2---2----2----2-2---2----2----|
d|-2-4-2-4----4----2-4-2-4----2----|
a|-0-0-0-0----0----0-0-0-0----0----|
e|---------------------------------|





Solo 2:
e|-10b-8-------------------5-------------------------------|
b|-------10~~~~--8b----3b5---5--8b10~~~~~~--13~~~~~~~~\\\\-|
g|---------------------------------------------------------|
d|---------------------------------------------------------|
a|---------------------------------------------------------|
e|---------------------------------------------------------|




e|-15b17-15-15~~~~-13-------5~~~~------5-5----|
b|---------------------8b10-------8b10--------|
g|--------------------------------------------|
d|--------------------------------------------|
a|--------------------------------------------|
e|--------------------------------------------|



     |--------hb---------|
e|----8-8-10--8--8-10~~~~-10-----13b15~~~~-|
b|-10------------------------10------------|
g|-----------------------------------------|
d|-----------------------------------------|
a|-----------------------------------------|
e|-----------------------------------------|




e|-15--------------20~~~~-----------------15--------------|
b|----15h18-18b20---------10-12b13-12~~~~----15-20b22~~~~-|
g|--------------------------------------------------------|
d|--------------------------------------------------------|
a|--------------------------------------------------------|
e|--------------------------------------------------------|


I think after Solo 2 Angus goes back and play the Chorus again,
Then plays Solo 3.




Chorus 3:   X4
e|------------------------3-3------------------------|
b|---3----3----3----------3-3----3-3------3----------|
g|-2-2--2-2----2----------0-0----2-2------2-2---2----|
d|-2-0--2-2----0----------0-0----0-0------0-2-2-2----|
a|-0-0--0-0----0----------x-x----x-x--------0-0-0----|
e|------------------------3-3----2-2-----------------|





Solo 3:
e|--------------------------------------------------------------------------|
b|-\\\\----20b22~~~~-20b22~~~~----20-------20-------------------------20b22-|
g|-\\\\------------------------19b20----19b20----19p17-------17b--17b-------|
d|-\\\\------------------------------------------------19p17----------------|
a|-\\\\---------------------------------------------------------------------|
e|--------------------------------------------------------------------------|




e|---------------------------------------------------------|
b|-20b22~~~~~~~~-19p17-----20p19p17----17------------------|
g|---------------------19-----------19----19p17~~~~--------|
d|--------------------------------------------------19~~~~-|
a|---------------------------------------------------------|
e|---------------------------------------------------------|




e|---------------------------------------------|
b|-18b20~~~~-20p19p17-19p17--------------------|
g|--------------------------19p17b~~~~-19~~~~~-|
d|---------------------------------------------|
a|---------------------------------------------|
e|---------------------------------------------|




e|--------------------------------------|
b|-17-----------20----------------------|
g|----19p17--19b20----17b19--17---------|
d|------------------------------19~~~~~-|
a|--------------------------------------|
e|--------------------------------------|




                             |------hb-------|
e|-------------------------------------------|
b|----20-------20-------20----20-20-20-20-20-|
g|-19b20----19b20----19b20----19-19-19-19-19-|
d|-------------------------------------------|
a|-------------------------------------------|
e|-------------------------------------------|



Solo 3 Outro:        X1                               Outro: 
e|----------------------------------------------------------||-----|
b|-20b22----18p17h18p17h18p17-17h18p17----17----------------||-----|
g|-------------------------------------19----19p17--14~~~~~-||-2\--|
d|----------------------------------------------------------||-2\--|
a|----------------------------------------------------------||-0---|
e|----------------------------------------------------------||-----|


Thats all, & Enjoy it!

|----------------|
|  Guitar Key:   |
| hb= hold bend  |
| x= mute        | 
| p= pull off    |  
| h= hammer on   |  
| ~= vibrato     | 
| \= slide down  |  
| pm= palm mute  |
|----------------|
comments
print report bad tab
6 comments total. Showing first comments.
+2 reply
ACDCrox74 wrote on September 7 2008, 04:51 pm

First one to comment! great tab man!

+3 reply
A_n_g_u_s wrote on September 12 2008, 01:11 pm

You should tab the malcom guitar...

+3 reply
luisato wrote on September 16 2008, 01:22 pm

pretty nice tab

I want to post or [tab]
guest
You may want to rate the tab now too:
select rating
Please do not post tabs as comments. Select "correction" instead!