Oops, an error
Loading. Please wait.

Rock N Roll Train Tab

version 4
version 4
6,390 views 1 this week
1 commentread comment
1 2 3 4 5
accurate
x 8
add to favorites
launch autoscroll
font size
0
reset
how to read this tab
guitar tuner
Tab Pro tools
  • play this tab
  • loop segment
  • change instrument
  • show fretboard
  • metronome
×
Best way to learn
"Rock N Roll Train"
Autoscroll
slow
fast
+/-
esc
set tempo
stop
Contributor
Difficulty
Tabbers playing skills
novice
advanced
                          Rock N Roll Train                                 


                                                                           Band :  AC/DC
Album : Black Ice 2008

 Lead guitar (Angus Young)


     One hot an- gel  One        cool de- vil You're my only fan- ta-  
     E   E   E   Q    Q    E     E    E   E   E      E  E    E    E    
E||---------------------------|-------3---3---3------3--2----2----2---|
B||--2---3---2---3----3-------|--3----3---3---3------3--3----3----3---|
G||--2---2---2---2----2-------|--2----0---0---0------0--2----2----2---|
D||--2---4---2---4----4-------|--4----0---0---0------0--0----0----0---|
A||--0---0---0---0----0-------|--x----2---2---2------2--0----0----0---|
E||---------------------------|-------3---3---3------3----------------|


  sy- Li- ving on             the ecs- ta- sy   Give     
  E   E   E    E  H           E   E    E   Q    Q    E   
--2---0---0----0-----------|----------------------------|
--3---2---2----2-----------|--2---3----2---3----3-------|
--2---2---2----2-----------|--2---2----2---2----2-------|
--0---2---2----2-----------|--2---4----2---4----4-------|
--0---0---0----0-----------|--0---0----0---0----0-------|
---------------------------|----------------------------|


  it all, give it, Give it what you    got Come on give           
  E  E    E    E   E    E  E    E      E   E    E  E    H         
-----3----3----3---3----2--2----2---|--2---0----0--0-------------|
--3--3----3----3---3----3--3----3---|--3---2----2--2-------------|
--2--0----0----0---0----2--2----2---|--2---2----2--2-------------|
--4--0----0----0---0----0--0----0---|--0---2----2--2-------------|
--x--2----2----2---2----0--0----0---|--0---0----0--0-------------|
-----3----3----3---3----------------|----------------------------|


  it all a  lot  Pick       it up, move it Give it to the  
  E  E   E  Q    Q    E     E  E   E    E  E    E  E  E    
-------------------------|-----3---3----3--3----2--2--2---|
--2--3---2--3----3-------|--3--3---3----3--3----3--3--3---|
--2--2---2--2----2-------|--2--0---0----0--0----2--2--2---|
--2--4---2--4----4-------|--4--0---0----0--0----0--0--0---|
--0--0---0--0----0-------|--x--2---2----2--2----0--0--0---|
-------------------------|-----3---3----3--3--------------|


  spot Your mind on             fan- ta- sy Livin' on       
  E    E    E    E  H           E    E   E  Q      Q    E   
--2----0----0----0-----------|-----------------------------|
--3----2----2----2-----------|--2----3---2--3------3-------|
--2----2----2----2-----------|--2----2---2--2------2-------|
--0----2----2----2-----------|--2----4---2--4------4-------|
--0----0----0----0-----------|--0----0---0--0------0-------|
-----------------------------|-----------------------------|


  ecs- ta- sy- Run- a- way Tra- in    (  Ru- nn- ing           
  E    E   E   E    E  E   E    E     E  E   E   E   H         
-------3---3---3----3--2---2----2--|--2--0---0---0------------|
--3----3---3---3----3--3---3----3--|--3--2---2---2------------|
--2----0---0---0----0--2---2----2--|--2--2---2---2------------|
--4----0---0---0----0--0---0----0--|--0--2---2---2------------|
--x----2---2---2----2--0---0----0--|--0--0---0---0------------|
-------3---3---3----3--------------|--------------------------|


                      ri- ght o- ff   the                          
  W                   E   E   E  Q    Q    E     W                 
-------------------|--------------------------|-------------------|
--L----------------|------3------3----3-------|-------------------|
--L----------------|--2---2------2----2-------|-------------------|
--L----------------|--2---4---2--4----4-------|-------------------|
--L----------------|--0---0---0--0----0-------|-------------------|
-------------------|--------------------------|-------------------|


     tra- ck)      Run-                           a- way Tra- in   (        
  E  E    E   Q    Q    E     W                   E  E   E    Q    Q    E   
---------------------------|-------------------|---------------------------|
-----3--------3----2-------|-------------------|-----3--------3----3-------|
--2--2--------2----2-------|-------------------|--2--2--------2----2-------|
--2--4----2---4----2-------|-------------------|--2--4---2----4----4-------|
--0--0----0---0----0-------|-------------------|--0--0---0----0----0-------|
---------------------------|-------------------|---------------------------|


                      Ru- nn- ing ri-  ght                          
  W                   E   E   E   Q    Q    E     W                 
-------------------|---------------------------|-------------------|
-------------------|------3-------3----2-------|-------------------|
-------------------|--2---2-------2----2-------|-------------------|
-------------------|--2---4---2---4----2-------|-------------------|
-------------------|--0---0---0---0----0-------|-------------------|
-------------------|---------------------------|-------------------|


  o- ff the    tra- ck)    Run-    a- way Tra- in            
  PM PM PM     PM   PM                PM  PM   PM            
  E  E  E   E  E    E   E  E       E  E   E    E  Q    Q     
--------------------------------|---------------------------|
--3---------5--5----------------|--3--3---0----3------------|
--2--2--2---5--5----0---0--0----|--2--2---0----2------------|
-----2--2---5--5----0---0--0----|--0--0---0----0------------|
--------------------------------|---------------------------|
--------------------------------|---------------------------|


  (  Ru- nn- ing ri- ght o- ff    the    tra- ck)            
  PM PM  PM      PM  PM               PM PM   PM             
  E  E   E   E   E   E   E  E     E   E  E    E   Q    Q     
-------------------------------|----------------------------|
--3----------5---5-------------|--3---3--0----3-------------|
--2--2---2---5---5---0---0--0--|--2---2--0----2-------------|
-----2---2---5---5---0---0--0--|--0---0--0----0-------------|
-------------------------------|----------------------------|
-------------------------------|----------------------------|


     Yeah the Run- away Train (  Ru-    nn- ing    ri-            
  PM PM   PM       PM   PM                  PM  PM PM             
  E  E    E   E    E    E     E  E      E   E   E  E   Q    Q     
-------------------------------------|---------------------------|
--3-----------5----5-----------------|--3---3---0--3-------------|
--2--2----2---5----5----0-----0--0---|--2---2---0--2-------------|
-----2----2---5----5----0-----0--0---|--0---0---0--0-------------|
-------------------------------------|---------------------------|
-------------------------------------|---------------------------|


  ght o- ff the    tra- ck) One       hot rene- gade Old school re- bel  
  PM  PM PM PM  PM PM   PM                                               
  E   E  E  E   E  E    E   E      E  E   E     E    E   E      E   E    
--------------------------------|---------------------------------------|
--3---------5---5--3----3-------|-----3---3-----3----3---3------3---3---|
--2---2--2--5---5--0----0---0---|--L--2---2-----2----2---2------2---2---|
------2--2--5---5--0----0---0---|--L--4---4-----4----4---4------4---4---|
--------------------------------|---------------------------------------|
--------------------------------|---------------------------------------|


     A  ten for the revel- ry- Jamm-    ing up the ag-  en-      
  E  E  E   E   E   E      E   E        E   E  E   Q    Q    E   
-------------------------------------|--------------------------|
-----3--3---3---3---3------3---3-----|--2---3--2---3----3-------|
--L--2--2---2---2---2------2---2-----|--2---2--2---2----2-------|
--L--4--4---4---4---4------4---4-----|--2---4--2---4----4-------|
-------------------------------------|--0---0--0---0----0-------|
-------------------------------------|--------------------------|


  cy Shake it,    Shake it Take it    to the spot You           
  E  E     E   E  E     E  E    E     E  E   E    E   H         
-----3-----3---3--3-----2--2----2--|--2--0---0----0------------|
--3--3-----3---3--3-----3--3----3--|--3--2---2----2------------|
--2--0-----0---0--0-----2--2----2--|--2--2---2----2------------|
--4--0-----0---0--0-----0--0----0--|--0--2---2----2------------|
--x--2-----2---2--2-----0--0----0--|--0--0---0----0------------|
-----3-----3---3--3----------------|---------------------------|


  know she make it   really       hot Get it on, get it up Camon  
  E    E   E    Q    Q      E     E   E   E  E   E   E  E  E      
-------------------------------|--3--------------2---------------|
-------3--------3----3---------|--3---3---3--3---3---------------|
--2----2---2----2----2---------|--0---0---0--0---2---2--2--2-----|
--2----0---2----0----0---------|--0---0---0--0---0---0--0--0-----|
--0----0---0----0--------------|--x------------------------------|
-------------------------------|--3------------------------------|


  give it all ugot Your         mind on fantasy Livin' on       
  E    E  E   E    Q    Q       E    E  E       Q      Q    E   
-----------------------------|---------------------------------|
-------3---------------------|-------3----------3------3-------|
--2----2--2---2----2---------|--2----2--2-------2------2-------|
--0----0--2---2----2---------|--2----0--2-------0------0-------|
----------0---0----0---------|--0----0--0-------0--------------|
-----------------------------|---------------------------------|


  the ecs- ta- sy    Run- a- way    Tra- in (  Ru- nn-        
  E   E    E   E  E  E    E  E      E    E  E  E   Q    Q     
--3---------------2--------------|---------------------------|
--3---3----3---3--3--------------|-------3-------------------|
--0---0----0---0--2--2----2--2---|--2----2--2--2---2---------|
--0---0----0---0--0--0----0--0---|--0----0--2--2---2---------|
--x------------------------------|----------0--0---0---------|
--3------------------------------|---------------------------|


  ing ri- ght o-   ff         the tra- ck)       Yeah Run-     
  E   E   E   Q    Q    E     E   E    E   E  E  E    E    E   
---------------------------|--3---------------2---------------|
------3-------3----3-------|--3---3----3---3--3---------------|
--2---2---2---2----2-------|--0---0----0---0--2--2----2----2--|
--2---0---2---0----0-------|--0---0----0---0--0--0----0----0--|
--0---0---0---0------------|--x-------------------------------|
---------------------------|--3-------------------------------|


  away Train (  Ru- nn-                                                
  E    E     E  E   Q    Q       W                   W                 
------------------------------|-------------------|-------------------|
-------3----------------------|-------------------|-------------------|
--2----2-----2--2---2---------|-------------------|-------------------|
--0----0-----2--2---2---------|-------------------|-------------------|
-------------0--0---0---------|-------------------|-------------------|
------------------------------|-------------------|-------------------|


  ing ri- ght o-   ff                             the tra- ck) On   the      
  E   E   E   Q    Q    E     W                   E   E    E   Q    Q    E   
---------------------------|-------------------|----------------------------|
------3-------3----3----L--|-------------------|------3--------3----2----L--|
--2---2-------2----2----L--|-------------------|--2---2--------2----2----L--|
--2---4---2---4----4----L--|-------------------|--2---4----2---4----2----L--|
--0---0---0---0----0----L--|-------------------|--0---0----0---0----0----L--|
---------------------------|-------------------|----------------------------|


                      Run- a- way Tra- in                           
  W                   E    E  E   Q    Q    E     W                 
-------------------|---------------------------|-------------------|
-------------------|-------3------3----3----L--|-------------------|
-------------------|--2----2------2----2----L--|-------------------|
-------------------|--2----4--2---4----4----L--|-------------------|
-------------------|--0----0--0---0----0----L--|-------------------|
-------------------|---------------------------|-------------------|


  (  Ru- nn- ing  ri-                            ght o- ff the    tra- ck)     
                                                 PM  PM PM     PM PM           
  E  E   E   Q    Q    E     W                   E   E  E  E   E  E    E   E   
--------------------------|-------------------|-------------------------------|
-----3-------3----2----L--|-------------------|--3---------5---5--0----0---0--|
--2--2-------2----2----L--|-------------------|--2---2--2--5---5--0----0---0--|
--2--4---2---4----2----L--|-------------------|------2--2--5---5--0----0---0--|
--0--0---0---0----0----L--|-------------------|-------------------------------|
--------------------------|-------------------|-------------------------------|


  Run- a- way Tra-              in (  Ru- nn- ing ri- ght o-  
       PM PM  PM                PM PM PM      PM  PM          
  E    E  E   E    Q    Q       E  E  E   E   E   E   E   E   
-----------------------------|-------------------------------|
--3----3--0---3--------------|--3---------5---5---0---0---0--|
--2----2--0---2--------------|--2--2--2---5---5---0---0---0--|
--0----0--0---0--------------|-----2--2---5---5---0---0---0--|
-----------------------------|-------------------------------|
-----------------------------|-------------------------------|


  ff the tra- ck)                    One hot southern belle Son of  
     PM  PM   PM               PM PM PM      PM       PM            
  E  E   E    E   Q    Q       E  E  E   E   E        E     E   E   
----------------------------|--------------------------------------|
--3--3---0----3-------------|--3---------5---5--------0-----0---0--|
--2--2---0----2-------------|--2--2--2---5---5--------0-----0---0--|
--0--0---0----0-------------|-----2--2---5---5--------0-----0---0--|
----------------------------|--------------------------------------|
----------------------------|--------------------------------------|


  a  devil A  school-              boy spell- ing bee A  s- chool- girl  
     PM    PM PM                   PM  PM     PM  PM  PM PM PM           
  E  E     E  E       Q    Q       E   E      E   E   E  E  E      E     
--------------------------------|---------------------------------------|
--3--3-----0--3-----------------|--3--------------1---1--3--3-----------|
--2--2-----0--2-----------------|--2---2------2---0---0--0--0------0----|
--0--0-----0--0-----------------|------2------2---2---2--0--0------0----|
--------------------------------|---------------------------------------|
--------------------------------|---------------------------------------|


     with a  fantasy One hot rene- gade    Old school re- bel  A        
  E  E    E  E       E   E   E     E       E   E      E   Q    Q    E   
----------------------------------------|------------------------------|
-----3----3--3-------3---3---3-----3----|--2---3------2---3----3-------|
--L--2----2--2-------2---2---2-----2----|--2---2------2---2----2-------|
--L--0----0--0-------0---0---0-----0----|--2---4------2---4----4-------|
----------------------------------------|--0---0------0---0----0-------|
----------------------------------------|------------------------------|


  ten for the revel- ry- Dia- mond of    the a- gen- cy           
  E   E   E   E      E   E    E    E     E   E  E    E  H         
------3---3---3------3---2----2----2--|--2---0--0----0-----------|
--3---3---3---3------3---3----3----3--|--3---2--2----2-----------|
--2---0---0---0------0---2----2----2--|--2---2--2----2-----------|
--4---0---0---0------0---0----0----0--|--0---2--2----2-----------|
--x---2---2---2------2---0----0----0--|--0---0--0----0-----------|
------3---3---3------3----------------|--------------------------|


  Shake it, Shake it   Take       it to the spot You know she make  
  E     E   E     Q    Q    E     E  E  E   E    E   E    E   E     
-------------------------------|-----3--3---3----3---2----2---2----|
--2-----3---2-----3----3-------|--3--3--3---3----3---3----3---3----|
--2-----2---2-----2----2-------|--2--0--0---0----0---2----2---2----|
--2-----4---2-----4----4-------|--4--0--0---0----0---0----0---0----|
--0-----0---0-----0----0-------|--x--2--2---2----2---0----0---0----|
-------------------------------|-----3--3---3----3-----------------|


  it really hot Get             it on, get it   up       
  E  E      E   E   H           E  E   E   Q    Q    E   
--2--0------0---0------------|--------------------------|
--3--2------2---2------------|-----3-------3----3-------|
--2--2------2---2------------|--2--2---2---2----2-------|
--0--2------2---2------------|--2--0---2---0----0-------|
--0--0------0---0------------|--0--0---0---0------------|
-----------------------------|--------------------------|


  Camongive it what u  got You know       she’s just    like A          
  E         E  E    E  E   E   E    E     E     E    E  E    Q    Q     
--3--------------------2---------------|-------------------------------|
--3---------3--3----3--3---------------|--------3----------------------|
--0---------0--0----0--2---2---2----2--|--2-----2----2--2----2---------|
--0---------0--0----0--0---0---0----0--|--0-----0----2--2----2---------|
--x------------------------------------|-------------0--0----0---------|
--3------------------------------------|-------------------------------|


  Runa- way Tra- in   (                    Ru-        
  E     E   E    Q    Q    E     H         H          
------------------------------|----------------------|
--------3--------3----3-------|----------------------|
--2-----2---2----2----2-------|----------------------|
--2-----0---2----0----0-------|-----------22\--------|
--0-----0---0----0------------|-----------22\--------|
------------------------------|-----------22\--------|


   nn- ing     ri- ght o- ff the       tra- ck)           Run-      
   E   Q.      S   S   S  S  E   E     E    Q      Q      Q.        
------------------------------------|------------------------------|
------------------------------------|------------------------------|
-------7b------5-------5------------|--5----7br----7br----7br------|
--12\--------------7------7--5---7--|------------------------------|
--12\-------------------------------|------------------------------|
--12\-------------------------------|------------------------------|


       a- way Tra-    in    (  Ru-    nn- ing ri-  ghto- ff    the           
  Q    S  S   E    E  Q     S  S      S   S   S    S  S  Q     Q      E.     
-----------------------------------|---------------------8~----8b~----8b~---|
-----------------------------------|--8-------8---10--8---------------------|
--L----7p-5-----------5~----8h-9---|------9---------------------------------|
--------------7~---L--5------------|----------------------------------------|
-----------------------------------|----------------------------------------|
-----------------------------------|----------------------------------------|


   tra-   ck)             Get        it      on,   getit  up Camon   
   Q      Q       Q       Q          Q       E     E  S   S  Q.      
---------12~-----12~-----12~-----|--12~-----10br--11--8-------------|
--10~----13b~----13b~----13b~----|--13b~-----------------10-10------|
---------------------------------|----------------------------------|
---------------------------------|----------------------------------|
---------------------------------|----------------------------------|
---------------------------------|----------------------------------|


  W                    W                   W                 
--------------------|-------------------|-------------------|
--L\----------------|-------------------|-------------------|
--------------------|-------------------|-------------------|
--------------------|-------------------|-------------------|
--------------------|-------------------|-------------------|
--------------------|-------------------|-------------------|


  give  it        all          ugot- Run- a- way  Tra-                         
  S     Q.      S H            E     E    E  Q    Q    E     W                 
--8-------------------------|-----------------------------|-------------------|
-------10~------L-----------|--------3-------3----3----L--|-------------------|
----------------------------|--2-----2-------2----2----L--|-------------------|
------------------x\--------|--2-----4----2--4----4----L--|-------------------|
------------------x\--------|--0-----0----0--0----0----L--|-------------------|
------------------x\--------|-----------------------------|-------------------|


  in (  Ru- nn-  ing                            ri- ght o- ff   the      
  E  E  E   Q    Q    E     W                   E   E   E  Q    Q    E   
-------------------------|-------------------|--------------------------|
-----3------3----2----L--|-------------------|------3------3----3----L--|
--2--2------2----2----L--|-------------------|--2---2------2----2----L--|
--2--4--2---4----2----L--|-------------------|--2---4---2--4----4----L--|
--0--0--0---0----0----L--|-------------------|--0---0---0--0----0----L--|
-------------------------|-------------------|--------------------------|


                      tra- ck)         Run-                         
  W                   E    E   E  Q    Q    E     W                 
-------------------|---------------------------|-------------------|
-------------------|-------3------3----2----L--|-------------------|
-------------------|--2----2------2----2----L--|-------------------|
-------------------|--2----4---2--4----2----L--|-------------------|
-------------------|--0----0---0--0----0----L--|-------------------|
-------------------|---------------------------|-------------------|


   a-    way  Tra-     in                      
   Q     E    H        E     W                 
--10b----8-------------8--|-------------------|
-------------10-----------|-------------------|
--------------------------|-------------------|
--------------------------|-------------------|
--------------------------|-------------------|
--------------------------|-------------------|


  (  Ru- nn- ing ri-  ght 



Duration Legend
---------------
W - whole
H - half
Q - quarter
E - 8th
S - 16th
T - 32nd
X - 64th
. - note dotted
|-n-|  - n-tuplets


Tablature Legend
----------------
L - tied note
x - dead note
g - grace note
(n) - ghost note
> - accentuded note
NH - natural harmonic
AH - artificial harmonic
TH - tapped harmonic
SH - semi harmonic
PH - pitch harmonic
h - hammer on
p - pull off
b - bend
br - bendRelease
pb - preBend
pbr - preBendRelease
brb - bendReleaseBend
\n/ - tremolo bar dip
\n - tremolo bar dive
-/n - tremolo bar Release up
/n\ - tremolo bar inverted dip
/n - tremolo bar return
-\n - tremolo bar Release down
S - shift slide
s - legato slide
/ -  slide into from below or out of upwards
\ -  slide into from above or out of downwards
~ - vibrato
W - wide vibrato
tr - trill
TP - tremolo picking
T - tapping
S - slap
P - pop
< - fade in
^ - brush up
v - brush down
comments
print report bad tab
1 comment total.
0 reply
daniel dickey wrote on February 13 2010, 12:55 am

not even close

I want to post or [tab]
guest
You may want to rate the tab now too:
select rating
Please do not post tabs as comments. Select "correction" instead!