Oops, an error
Loading. Please wait.

Rock The Blues Away tab

version 2
version 2

Whole song

by AC/DC
559 views 1 this week
no commentswrite comment
1 2 3 4 5
2 more votes to show rating
add to favorites
×
Save as Personal and add changes to this tab that will be seen only by you. Learn more ›
×
You can save this tab as Personal to edit and correct it or add notes. All changes will be seen only by you. Learn more »
launch autoscroll
font size
0
reset
how to read this tab
guitar tuner
edit
Autoscroll
slow
fast
+/-
esc
set tempo
stop
Author
-------------------------------------------------------------------------------
                             Rock the Blues Away - AC/DC
-------------------------------------------------------------------------------
Tabbed by: jothunder

Tuning: Standard

Disclaimer: This tab does not contain the guitar solo!

(A) - Angus

(M) - Malcolm

-------------------------------------------------------------------------------

INTRO

e|-----------------------3---------|-----------------------3---------| (A)
B|-1-----1---1-----------3---------|-1-----1---1-----------3---------|
G|-0-----2---0-----------0---2-----|-0-----2---0-----------0---2-----|
D|-x-----x---x-----------0---3-----|-x-----x---x-----------0---3-----|
A|-3-3-3-3---3---3-3-3-3-----3---3-|-3-3-3-3---3---3-3-3-3-----3---3-|
E|---------------------------------|---------------------------------|
 |                                                                   |
e|---------------------------------|---------------------------------| (M)
B|---------------------------------|---------------------------------|
G|---------------------------------|---------------------------------|
D|---------------------------------|-----------------------5---3-----|
A|---------------------------------|-----------------------5---3-----|
E|---------------------------------|-----------------------3---1-----|

e|-----------------------3---------|---------------3-----------------| (A)
B|-1-----1---1-----------3---------|-1-----1---1---3-----------------|
G|-0-----2---0-----------0---2-----|-0-----2---0---0---2-----5-------|
D|-x-----x---x-----------0---3-----|-x-----x---x---0---3-----5-------|
A|-3-3-3-3---3---3-3-3-3-----3---3-|-3-3-3-3---3-------3---3-3-------|
E|---------------------------------|---------------------------------|
 |                                                                   |
e|---------------------------------|---------------------------------| (M)
B|---------------------------------|---------------------------------|
G|-5-------------------------------|-5-----------------------5-------|
D|-5---------------------5---3-----|-5-------------5---3-----5-------|
A|-3---------------------5---3-----|-3-------------5---3---3-3-------|
E|-----------------------3---1-----|---------------3---1-------------|


PRE-VERSE

e|-----------------------3---------|---------------3-----------------| (A)
B|-1-----1---1-----1-----3---------|-1-----1---1---3-----------------|
G|-0-----2---0-----0-----0---2-----|-0-----2---0---0---2-----5-------|
D|-x-----x---x-----x-----0---3-----|-x-----x---x---0---3-----5-------|
A|-3-3-3-3---3---3-3---3-----3---3-|-3-3-3-3---3-------3---3-3-------|
E|---------------------------------|---------------------------------|
 |                                                                   |
e|---------------------------------|---------------------------------| (M)
B|---------------------------------|---------------------------------|
G|-5-----5---5---------------------|-5-----5---5-------------5-------|
D|-5-----5---5-----------5---3-----|-5-----5---5---5---3-----5-------|
A|-3-3-3-3---3---3-3-3-3-5---3---3-|-3-3-3-3---3---5---3---3-3-------|
E|-----------------------3---1-----|---------------3---1-------------|


VERSE

e|---------------------------------|---------------3-----------------| (A)
B|-1-----1---1-----------1---1-----|-1-----1---1---3-----------------|
G|-0-----2---0-----------x---x-----|-0-----2---0---0---2-----5-------|
D|-x-----x---x-----------3---3-----|-x-----x---x---0---3-----5-------|
A|-3-3-3-3---3---3-3-3-3-3---3---3-|-3-3-3-3---3-------3---3-3---3-3-|
E|---------------------------------|---------------------------------|
 |                                                                   |
e|---------------------------------|---------------------------------| (M)
B|---------------------------------|---------------------------------|
G|-5-----5---5-------5-------------|-5-5---5---5-------------5-------|
D|-5-----5---5-------5---3---3-----|-5-5---5---5---5---3-----5-------|
A|-3-3-3-3---3---3-3-3---3---3---3-|-3-3---3---3---5---3---3-3---3-3-|
E|-----------------------1---1-----|---------------3---1-------------|

e|---------------------------------|---------------3-----------------| (A)
B|-1-----1---1-----------1---1-----|-1-----1---1---3-----------------|
G|-0-----2---0-----------x---x-----|-0-----2---0---0---2-----5-------|
D|-x-----x---x-----------3---3-----|-x-----x---x---0---3-----5-------|
A|-3-3-3-3---3---3-3-3-3-3---3---3-|-3-3-3-3---3-------3---3-3---3-3-|
E|---------------------------------|---------------------------------|
 |                                                                   | Play 2x
e|---------------------------------|---------------------------------| (M)
B|---------------------------------|---------------------------------|
G|-5-5---5---5-------5-------------|-5-5---5---5-------------5-------|
D|-5-5---5---5-------5---3---3-----|-5-5---5---5---5---3-----5-------|
A|-3-3---3---3---3-3-3---3---3---3-|-3-3---3---3---5---3---3-3---3-3-|
E|-----------------------1---1-----|---------------3---1-------------|

e|---------------------------------|---------------3-----------------| (A)
B|-1-----1---1-----------1---1-----|-1-----1---1---3-----------------|
G|-0-----2---0-----------x---x-----|-0-----2---0---0---2-----5-------|
D|-x-----x---x-----------3---3-----|-x-----x---x---0---3-----5-------|
A|-3-3-3-3---3---3-3-3-3-3---3---3-|-3-3-3-3---3-------3---3-3-------|
E|---------------------------------|---------------------------------|
 |                                                                   |
e|---------------------------------|---------------------------------| (M)
B|---------------------------------|---------------------------------|
G|-5-5---5---5-------5-------------|-5-5---5---5-------------5-------|
D|-5-5---5---5-------5---3---3-----|-5-5---5---5---5---3-----5-------|
A|-3-3---3---3---3-3-3---3---3---3-|-3-3---3---3---5---3---3-3-------|
E|-----------------------1---1-----|---------------3---1-------------|


PRE-CHORUS

e|-3-3-3-----------3-3-3-----------|-3-3-3-----------3-3-3-----------| (A)
B|-3-3-3-----------3-3-3-----------|-3-3-3-----------3-3-3-----------|
G|-0-0-0-5---5-5---0-0-0-5---5-5---|-0-0-0-5---5-5---0-0-0-5---5-5---|
D|-0-0-0-5---5-5---0-0-0-5---5-5---|-0-0-0-5---5-5---0-0-0-5---5-5---|
A|-------3---3-3---------3---3-3---|-------3---3-3---------3---3-3---|
E|---------------------------------|---------------------------------|
 |                                                                   |
e|---------------------------------|---------------------------------| (M)
B|---------------------------------|---------------------------------|
G|-------5---------------5---------|-------5---------------5---------|
D|-5-5-5-5---------5-5-5-5---------|-5-5-5-5---------5-5-5-5---------|
A|-5-5-5-3---------5-5-5-3---------|-5-5-5-3---------5-5-5-3---------|
E|-3-3-3-----------3-3-3-----------|-3-3-3-----------3-3-3-----------|

e|---------------------------1-1---|---------------------------------| (A)
B|-1---------1-1---1-1-------x-x---|-1---------1-1-1-1-1-1-1-1-1-1-1-|
G|-x---------x-x---x-x-------3-3---|-x---------x-x-x-x-x-x-x-x-x-x-x-|
D|-3---------3-3---3-3-------3-3---|-3---------3-3-3-3-3-3-3-3-3-3-3-|
A|-3---3-3---3-3---3-3---3---------|-3---3-3---3-3-3-3-3-3-3-3-3-3-3-|
E|---------------------------------|---------------------------------|
 |                                                                   |
e|---------------------------------|---------------------------------| (M)
B|---------------------------------|---------------------------------|
G|---------------------------3-3---|---------------------------------|
D|-3---------3-3---3-3-------3-3---|-3---------3-3-3-3-3-3-3-3-3-3-3-|
A|-3---------3-3---3-3-------1-1---|-3---------3-3-3-3-3-3-3-3-3-3-3-|
E|-1---1-1-1-1-1-1-1-1---1-1-------|-1---1-1-1-1-1-1-1-1-1-1-1-1-1-1-|


CHORUS

e|-----------------------3---------| (A)
B|-1-----1---1-------1---3---------|
G|-0-----2---0-------0---0---2-----|
D|-x-----x---x-------x---0---3-----|
A|-3-3-3-3---3---3-3-3-------3---3-|
E|---------------------------------|
 |                                 | Play 3x
e|---------------------------------| (M)
B|---------------------------------|
G|-5-----5-------5-----------------|
D|-5-----5-------5-------5---3-----|
A|-3---3-3---3-3-3---3-3-5---3---3-|
E|-----------------------3---1-----|

e|---------------3-----------------| (A)
B|-1-----1---1---3-----------------|
G|-0-----2---0---0---2-----5-------|
D|-x-----x---x---0---3-----5-------|
A|-3-3-3-3---3-------3---3-3-------|
E|---------------------------------|
 |                                 |
e|---------------------------------| (M)
B|---------------------------------|
G|-5-----5-----------------5-------|
D|-5-----5-------5---3-----5-------|
A|-3---3-3---3-3-5---3---3-3-------|
E|---------------3---1-------------|


VERSE

e|---------------------------------|---------------3-----------------| (A)
B|-1-----1---1-----------1---1-----|-1-----1---1---3-----------------|
G|-0-----2---0-----------x---x-----|-0-----2---0---0---2-----5-------|
D|-x-----x---x-----------3---3-----|-x-----x---x---0---3-----5-------|
A|-3-3-3-3---3---3-3-3-3-3---3---3-|-3-3-3-3---3-------3---3-3---3-3-|
E|---------------------------------|---------------------------------|
 |                                                                   |
e|---------------------------------|---------------------------------| (M)
B|---------------------------------|---------------------------------|
G|-5-----5---5-------5-------------|-5-5---5---5-------------5-------|
D|-5-----5---5-------5---3---3-----|-5-5---5---5---5---3-----5-------|
A|-3-3-3-3---3---3-3-3---3---3---3-|-3-3---3---3---5---3---3-3---3-3-|
E|-----------------------1---1-----|---------------3---1-------------|

e|---------------------------------|---------------3-----------------| (A)
B|-1-----1---1-----------1---1-----|-1-----1---1---3-----------------|
G|-0-----2---0-----------x---x-----|-0-----2---0---0---2-----5-------|
D|-x-----x---x-----------3---3-----|-x-----x---x---0---3-----5-------|
A|-3-3-3-3---3---3-3-3-3-3---3---3-|-3-3-3-3---3-------3---3-3-------|
E|---------------------------------|---------------------------------|
 |                                                                   |
e|---------------------------------|---------------------------------| (M)
B|---------------------------------|---------------------------------|
G|-5-5---5---5-------5-------------|-5-5---5---5-------------5-------|
D|-5-5---5---5-------5---3---3-----|-5-5---5---5---5---3-----5-------|
A|-3-3---3---3---3-3-3---3---3---3-|-3-3---3---3---5---3---3-3-------|
E|-----------------------1---1-----|---------------3---1-------------|


PRE-CHORUS

e|-3-3-3-----------3-3-3-----------|-3-3-3-----------3-3-3-----------| (A)
B|-3-3-3-----------3-3-3-----------|-3-3-3-----------3-3-3-----------|
G|-0-0-0-5---5-5---0-0-0-5---5-5---|-0-0-0-5---5-5---0-0-0-5---5-5---|
D|-0-0-0-5---5-5---0-0-0-5---5-5---|-0-0-0-5---5-5---0-0-0-5---5-5---|
A|-------3---3-3---------3---3-3---|-------3---3-3---------3---3-3---|
E|---------------------------------|---------------------------------|
 |                                                                   |
e|---------------------------------|---------------------------------| (M)
B|---------------------------------|---------------------------------|
G|-------5---------------5---------|-------5---------------5---------|
D|-5-5-5-5---------5-5-5-5---------|-5-5-5-5---------5-5-5-5---------|
A|-5-5-5-3---------5-5-5-3---------|-5-5-5-3---------5-5-5-3---------|
E|-3-3-3-----------3-3-3-----------|-3-3-3-----------3-3-3-----------|

e|---------------------------1-1---|---------------------------------| (A)
B|-1---------1-1---1-1-------x-x---|-1---------1-1-1-1-1-1-1-1-1-1-1-|
G|-x---------x-x---x-x-------3-3---|-x---------x-x-x-x-x-x-x-x-x-x-x-|
D|-3---------3-3---3-3-------3-3---|-3---------3-3-3-3-3-3-3-3-3-3-3-|
A|-3---3-3---3-3---3-3---3---------|-3---3-3---3-3-3-3-3-3-3-3-3-3-3-|
E|---------------------------------|---------------------------------|
 |                                                                   |
e|---------------------------------|---------------------------------| (M)
B|---------------------------------|---------------------------------|
G|---------------------------3-3---|---------------------------------|
D|-3---------3-3---3-3-------3-3---|-3---------3-3-3-3-3-3-3-3-3-3-3-|
A|-3---------3-3---3-3-------1-1---|-3---------3-3-3-3-3-3-3-3-3-3-3-|
E|-1---1-1-1-1-1-1-1-1---1-1-------|-1---1-1-1-1-1-1-1-1-1-1-1-1-1-1-|


CHORUS

e|-----------------------3---------| (A)
B|-1-----1---1-------1---3---------|
G|-0-----2---0-------0---0---2-----|
D|-x-----x---x-------x---0---3-----|
A|-3-3-3-3---3---3-3-3-------3---3-|
E|---------------------------------|
 |                                 | Play 3x
e|---------------------------------| (M)
B|---------------------------------|
G|-5-----5-------5-----------------|
D|-5-----5-------5-------5---3-----|
A|-3---3-3---3-3-3---3-3-5---3---3-|
E|-----------------------3---1-----|

e|---------------3-----------------| (A)
B|-1-----1---1---3-----------------|
G|-0-----2---0---0---2-----5-------|
D|-x-----x---x---0---3-----5-------|
A|-3-3-3-3---3-------3---3-3-------|
E|---------------------------------|
 |                                 |
e|---------------------------------| (M)
B|---------------------------------|
G|-5-----5-----------------5-------|
D|-5-----5-------5---3-----5-------|
A|-3---3-3---3-3-5---3---3-3-------|
E|---------------3---1-------------|


PRE-SOLO (or whatever ;) )

e|---------------------------------|---------------------------------| (A)
B|-1-----1---1---------------------|-1-----1---1-----1---------------|
G|-0-----2---0---------------------|-0-----2---0-----0---------------|
D|-x-----x---x---------------------|-x-----x---x-----x---------------|
A|-3-3-3-3-3-3-3-3-3-3-3-3-3-3-3-3-|-3-3-3-3-3-3-3-3-3-3-3-3-3-3-3-3-|
E|---------------------------------|---------------------------------|
 |                                                                   |
e|---------------------------------|---------------------------------| (M)
B|---------------------------------|---------------------------------|
G|-5-------------------------------|-3-------------------------------|
D|-5-------------------------------|-3-------------------------------|
A|-3-------------------------------|-1-------------------------------|
E|---------------------------------|---------------------------------|

e|---------------------------------|---------------------------------| (A)
B|-1-----1---1-----1---------------|-1-----1---1-----1---------1-----|
G|-0-----2---0-----0---------------|-0-----2---0-----0---------0-----|
D|-x-----x---x-----x---------------|-x-----x---x-----x---------x-----|
A|-3-3-3-3-3-3-3-3-3-3-3-3-3-3-3-3-|-3-3-3-3-3-3-3-3-3-3-3-3-3-3-3-3-|
E|---------------------------------|---------------------------------|
 |                                                                   |
e|---------------------------------|---------------------------------| (M)
B|---------------------------------|---------------------------------|
G|-2-------------------------------|-3-------------------------------|
D|-3-------------------------------|-3-------------------------------|
A|-3-------------------------------|-1-------------------------------|
E|-1-------------------------------|---------------------------------|


SOLO

e|---------------------------------|---------------------------------| (A)
B|-1-----1---1-----1---------1-----|-1-----1---1-----1---------1-----|
G|-0-----2---0-----0---------0-----|-0-----2---0-----0---------0-----|
D|-x-----x---x-----x---------x-----|-x-----x---x-----x---------x-----|
A|-3-3-3-3-3-3-3-3-3-3-3-3-3-3-3-3-|-3-3-3-3-3-3-3-3-3-3-3-3-3-3-3-3-|
E|---------------------------------|---------------------------------|
 |                                                                   |
e|---------------------------------|---------------------------------| (M)
B|---------------------------------|---------------------------------|
G|-5-------------------------------|-3-------------------------------|
D|-5-------------------------------|-3-------------------------------|
A|-3-------------------------------|-1-------------------------------|
E|---------------------------------|---------------------------------|

e|---------------------------------|---------------------------------| (A)
B|-1-----1---1-----1---------1-----|-1-----1---1-----1-----1-----1---|
G|-0-----2---0-----0---------0-----|-0-----2---0-----0-----0-----0---|
D|-x-----x---x-----x---------x-----|-x-----x---x-----x-----x-----x---|
A|-3-3-3-3-3-3-3-3-3-3-3-3-3-3-3-3-|-3-3-3-3-3-3-3-3-3-3-3-3-3-3-3-3-|
E|---------------------------------|---------------------------------|
 |                                                                   |
e|---------------------------------|---------------------------------| (M)
B|---------------------------------|---------------------------------|
G|-2-------------------------------|-3-------------------------------|
D|-3-------------------------------|-3-------------------------------|
A|-3-------------------------------|-1-------------------------------|
E|-1-------------------------------|---------------------------------|


CHORUS

e|-----------------------3---------| (A)
B|-1-----1---1-------1---3---------|
G|-0-----2---0-------0---0---2-----|
D|-x-----x---x-------x---0---3-----|
A|-3-3-3-3---3---3-3-3-------3---3-|
E|---------------------------------|
 |                                 | Play 3x
e|---------------------------------| (M)
B|---------------------------------|
G|-5-----5-------5-----------------|
D|-5-----5-------5-------5---3-----|
A|-3---3-3---3-3-3---3-3-5---3---3-|
E|-----------------------3---1-----|

e|---------------3-----------------| (A)
B|-1-----1---1---3-----------------|
G|-0-----2---0---0---2-----5-------|
D|-x-----x---x---0---3-----5-------|
A|-3-3-3-3---3-------3---3-3-------|
E|---------------------------------|
 |                                 |
e|---------------------------------| (M)
B|---------------------------------|
G|-5-----5-----------------5-------|
D|-5-----5-------5---3-----5-------|
A|-3---3-3---3-3-5---3---3-3-------|
E|---------------3---1-------------|

e|-----------------------3---------| (A)
B|-1-----1---1-------1---3---------|
G|-0-----2---0-------0---0---2-----|
D|-x-----x---x-------x---0---3-----|
A|-3-3-3-3---3---3-3-3-------3---3-|
E|---------------------------------|
 |                                 | Play 3x
e|---------------------------------| (M)
B|---------------------------------|
G|-5-----5-------5-----------------|
D|-5-----5-------5-------5---3-----|
A|-3---3-3---3-3-3---3-3-5---3---3-|
E|-----------------------3---1-----|

e|---------------3-----------------| (A)
B|-1-----1---1---3-----------------|
G|-0-----2---0---0---2-----5-------|
D|-x-----x---x---0---3-----5-------|
A|-3-3-3-3---3-------3---3-3-------|
E|---------------------------------|
 |                                 |
e|---------------------------------| (M)
B|---------------------------------|
G|-5-----5-----------------5-------|
D|-5-----5-------5---3-----5-------|
A|-3---3-3---3-3-5---3---3-3-------|
E|---------------3---1-------------|

END

************************************

| /   slide up
| \   slide down
| h   hammer-on
| p   pull-off
| ~   vibrato
| +   harmonic
| x   Mute note
| b   Bend
| pb  Pre-bend
| br  Bend release
| pbr Pre-bend release
| brb Bend release bend

************************************

            
            
Suggest correction
Creating personal tab
Creating personal tab
You can edit any tab online and save it as your Personal.

You can edit, replace or remove any tab part or add personal notes – all changes will be seen only by you.

Personal tabs can be accessed anytime from any device, even offline.
Learn more »
Give kudos to tab author, rate the tab!
1 2 3 4 5
comments
print report bad tab
guest
You may want to rate the tab now too:
select rating
Wanna post a correction for this tab? Suggest correction