Oops, an error
Loading. Please wait.

Rocking All The Way Bass Tab

version 1
version 1

Whole song

Interactive

926 views 3 this week
2 commentsread comments
1 2 3 4 5
not so good
x 3
add to favorites
launch autoscroll
font size
0
reset
guitar tuner
Tab Pro tools
  • play this tab
  • loop segment
  • change instrument
  • show fretboard
  • metronome
Autoscroll
slow
fast
+/-
esc
set tempo
stop
Contributor
Rocking All The Way by AC/DC
from Black Ice

G----------------|
D----------------|
A-----3-1---3-1--|
E-3-3-----3------|

VERSE       x4
G------------|
D------------|
A-3-3-3-1----|
E---------1--|

PRE CHORUS 0.40
G------------------|
D------------------|
A-5-5-5-5-5-5-5-5--|
E------------------|

CHORUS 0.47          x4
G----------------------|
D----------------------|
A---1-------3-1---3-1--|
E-1---3-1-3-----3------|

Any corrections please comment
Thanks
comments
We did not receive enough feedback on this tab! Please rate:
print report bad tab
1 2 3 4 5
2 comments total.
+1 reply
heavyinmind wrote on December 28 2008, 09:57 pm

sorry dude but this sucks

0 reply
Dback139 wrote on March 24 2009, 12:35 pm

You're missing a ton here. I know doing it this way is the easy way out, but honestly, if you're going to put it up for everyone in the world to see, try to make it so that it's as accurate as possible.

I want to post or [tab]
guest
You may want to rate the tab now too:
select rating
Please do not post tabs as comments. Select "correction" instead!