Oops, an error
Loading. Please wait.

Ruff Stuff tab

version 5
version 5

Whole song

by AC/DC
52 views 1 this week
no commentswrite comment
1 2 3 4 5
2 more votes to show rating
add to favorites
×
Save as Personal and add changes to this tab that will be seen only by you. Learn more ›
×
You can save this tab as Personal to edit and correct it or add notes. All changes will be seen only by you. Learn more »
launch autoscroll
font size
0
reset
how to read this tab
guitar tuner
edit
Autoscroll
slow
fast
+/-
esc
set tempo
stop
Author
-------------------------------------------------------------------------------
                             Ruff Stuff - AC/DC
-------------------------------------------------------------------------------
Tabbed by: jothunder

Tuning: Standard

Disclaimer: This tab does not contain the guitar solo!

-------------------------------------------------------------------------------
    LEAD GUITAR

INTRO

e|-----------------------------------|
B|-----------------------------------|
G|-----------------------------------|
D|-----------------------------------|
A|---3-4-3-1-----3-----4-----3-4-----|
E|-4-----------4-----4-----4-------4-|

e|---------------------------------|
B|---------------------------------|
G|---------------------------------| Play
D|---------------------------------|  3x
A|-3-4-3-1-----3-----4-----3-4-----|
E|-----------4-----4-----4-------4-|

e|---------------------------------|
B|-----x-6-------------------------|
G|-5---x-6-------------------------|
D|-6---x-6-------------------------|
A|-6-------------------------------|
E|---------------------------------|

e|---------------------------------|
B|-------6-x---------6-x-----6-x---|
G|-5-x---6-x---5-x---6-x---5-6-x---| Play
D|-6-x---6-x---6-x---6-x---6-6-x---|  2x
A|-6-x---------6-x---------6-------|
E|---------------------------------|


VERSE

e|---------------------------------|
B|-------6-x---------6-x-----6-x---|
G|-5-x---6-x---5-x---6-x---5-6-x---| Play
D|-6-x---6-x---6-x---6-x---6-6-x---|  3x
A|-6-x---------6-x---------6-------|
E|---------------------------------|

e|---------------------------------|
B|-------6-x---------6-x-----6-x---|
G|-5-x---6-x---5-x---6-x---5-6-x---|
D|-6-x---6-x---6-x---6-x---6-6-x---|
A|-6-x---------6-x---------6-------|
E|-------------------------------4-|

e|---------------------------------|
B|---------------------------------|
G|---------------------------------| Play
D|---------------------------------|  4x
A|-3-4-3-1-----3-----4-----3-4-----|
E|-----------4-----4-----4-------4-|

e|-----------------------------------------------------------------|
B|-----------------------------------------------------------------|
G|-8-8-8-8-8-8-8-8-8-8-8-8-8-8-8-8-6-6-6-6-6-6-6-3-----------------|
D|-8-8-8-8-8-8-8-8-8-8-8-8-8-8-8-8-6-6-6-6-6-6-6-4-----------------|
A|-6-6-6-6-6-6-6-6-6-6-6-6-6-6-6-6-4-4-4-4-4-4-4-4-----------------|
E|-----------------------------------------------------------------|


REFRAIN

e|---------------------------------|---------------------------------|
B|-------6-------------------------|-------6-------------------------|
G|-5---x-6-------------------------|-5---x-6-------------------------|
D|-6---x-6-------------------------|-6---x-6-------------------------|
A|-6---x-----------3-4-3-----------|-6---x-----------3-4-3-----------|
E|---------------4-------4-2-4-----|---------------4-------4-4-2-----|

e|---------------------------------|---------------------------------|
B|-------6-------------------------|-------6---x---------------------|
G|-5---x-6-------------------------|-5---x-6---x-3-------------------|
D|-6---x-6-------------------------|-6---x-6---x-4-------------------|
A|-6---x-----------3-4-3-----------|-6---x-------4-------------------|
E|---------------4-------4-2-4-----|---------------------------------|

e|---------------------------------|
B|-------6-x---------6-x-----6-x---|
G|-5-x---6-x---5-x---6-x---5-6-x---| Play
D|-6-x---6-x---6-x---6-x---6-6-x---|  2x
A|-6-x---------6-x---------6-------|
E|---------------------------------|


VERSE

e|---------------------------------|
B|-------6-x---------6-x-----6-x---|
G|-5-x---6-x---5-x---6-x---5-6-x---| Play
D|-6-x---6-x---6-x---6-x---6-6-x---|  3x
A|-6-x---------6-x---------6-------|
E|---------------------------------|

e|---------------------------------|
B|-------6-x---------6-x-----6-x---|
G|-5-x---6-x---5-x---6-x---5-6-x---|
D|-6-x---6-x---6-x---6-x---6-6-x---|
A|-6-x---------6-x---------6-------|
E|-------------------------------4-|

e|---------------------------------|
B|---------------------------------|
G|---------------------------------| Play
D|---------------------------------|  4x
A|-3-4-3-1-----3-----4-----3-4-----|
E|-----------4-----4-----4-------4-|

e|-----------------------------------------------------------------|
B|-----------------------------------------------------------------|
G|-8-8-8-8-8-8-8-8-8-8-8-8-8-8-8-8-6-6-6-6-6-6-6-3-----------------|
D|-8-8-8-8-8-8-8-8-8-8-8-8-8-8-8-8-6-6-6-6-6-6-6-4-----------------|
A|-6-6-6-6-6-6-6-6-6-6-6-6-6-6-6-6-4-4-4-4-4-4-4-4-----------------|
E|-----------------------------------------------------------------|



REFRAIN

e|---------------------------------|---------------------------------|
B|-------6-------------------------|-------6-------------------------|
G|-5---x-6-------------------------|-5---x-6-------------------------|
D|-6---x-6-------------------------|-6---x-6-------------------------|
A|-6---x-----------3-4-3-----------|-6---x-----------3-4-3-----------|
E|---------------4-------4-2-4-----|---------------4-------4-4-2-----|

e|---------------------------------|---------------------------------|
B|-------6-------------------------|-------6---x---------------------|
G|-5---x-6-------------------------|-5---x-6---x-3-------------------|
D|-6---x-6-------------------------|-6---x-6---x-4-------------------|
A|-6---x-----------3-4-3-----------|-6---x-------4-------------------|
E|---------------4-------4-2-4-----|---------------------------------|


INTERLUDE (while Angus plays his solo)

e|---------------------------------|
B|-7-7-7-7-7-----7-x-7-7-7-7-------|
G|-8-8-8-8-8-8-x-8-x-8-8-8-8-8-x-8-| Play
D|-----------6-x-------------6-x-6-|  2x
A|---------------------------------|
E|---------------------------------|

e|-----------------------------------------------------------------|
B|-7-7-7-7-7-----7-x-7-7-7-7-----6---------------------------------|
G|-8-8-8-8-8-8-x-8-x-8-8-8-8-8-x-6---------------------------------|
D|-----------6-x-------------6-x-6---------------------------------|
A|-----------------------------------------------------------------|
E|-----------------------------------------------------------------|

e|---------------------------------|
B|-7-7-7-7-7-----7-x-7-7-7-7-------|
G|-8-8-8-8-8-8-x-8-x-8-8-8-8-8-x-8-| Play
D|-----------6-x-------------6-x-6-|  2x
A|---------------------------------|
E|---------------------------------|

e|---------------------------------|
B|-7-7-7-7-7-----7-x-7-7-7-7-------|
G|-8-8-8-8-8-8-x-8-x-8-8-8-8-8-x---|
D|-----------6-x-------------6-x-6-|
A|---------------------------------|
E|---------------------------------|

e|---------------------------------|
B|---------------------------------|
G|-----4-----------4-----------4---|
D|-3-6---------3-6---------3-6-----|
A|-------4-----------2-------------|
E|---------------------------------|

e|---------------------------------|
B|---------------------------------|
G|-8-8-8-8-8-8-8-8-8-8-8-8-8-8-8-8-|
D|-8-8-8-8-8-8-8-8-8-8-8-8-8-8-8-8-|
A|-6-6-6-6-6-6-6-6-6-6-6-6-6-6-6-6-|
E|---------------------------------|

e|---------------------------------|
B|---------------------------------|
G|-----4-----------4-----------4---|
D|-3-6---------3-6---------3-6-----|
A|-------4-----------2-------------|
E|---------------------------------|

e|---------------------------------|
B|-------6-x---------6-x-----6-x---|
G|-5-x---6-x---5-x---6-x---5-6-x---|
D|-6-x---6-x---6-x---6-x---6-6-x---|
A|-6-x---------6-x---------6-------|
E|---------------------------------|

e|---------------------------------|
B|-------6-----------6-------6-----|
G|-5-----6-----5-----6-----5-6-----|
D|-6-----6-----6-----6-----6-6-----|
A|-6-----------6-----------6-------|
E|-------------------------------4-|

e|---------------------------------|
B|---------------------------------|
G|---------------------------------| Play
D|---------------------------------|  3x
A|-3-4-3-1-----3-----4-----3-4-----|
E|-----------4-----4-----4-------4-|

e|---------------------------------|
B|---------------------------------|
G|-------------5-------------------|
D|-------------6-------------------|
A|-3-4-3-1-----6-------------------|
E|-----------4---------------------|

e|---------------------------------|
B|-------6-------------------------|
G|-5---x-6-------------------------|
D|-6---x-6-------------------------|
A|-6---x---------------------------|
E|---------------------------------|

e|---------------------------------|
B|---------------------------------|
G|---------------------------------|
D|---------------------------------|
A|---3-4-3---1/3~~~~~~~~~~~~~~~~~~~|
E|-4-------4-----------------------|


REFRAIN

e|---------------------------------|---------------------------------|
B|-------6-------------------------|-------6-------------------------|
G|-5---x-6-------------------------|-5---x-6-------------------------| Play
D|-6---x-6-------------------------|-6---x-6-------------------------|  2x 
A|-6---x-----------3-4-3-----------|-6---x-----------3-4-3-----------|
E|---------------4-------4-2-4-----|---------------4-------4-4-2-----|

e|---------------------------------|
B|-------6-x---------6-x-----6-x---|
G|-5-x---6-x---5-x---6-x---5-6-x---| Play
D|-6-x---6-x---6-x---6-x---6-6-x---|  3x
A|-6-x---------6-x---------6-------|
E|---------------------------------|

e|---------------------------------|
B|-------6-----------6-------6-----|
G|-5-----6-----5-----6-----5-6-----|
D|-6-----6-----6-----6-----6-6-----|
A|-6-----------6-----------6-------|
E|---------------------------------|

e|---------------------------------|---------------------------------|
B|---------------------------------|---------------------------------|
G|---------4-----------------------|---------4---5-5-5-5-5-5-5-5-5-5-|
D|-3---6---------------------------|-3---6-------6-6-6-6-6-6-6-6-6-6-|
A|-------------4-------------------|-------------6-6-6-6-6-6-6-6-6-6-|
E|---------------------------------|---------------------------------|

e|---------|
B|---------|
G|-5-------|
D|-6-------|
A|-6-------|
E|---------|

-------------------------------------------------------------------------------
    RYTHM GUITAR

INTRO

e|-----------------------------------|
B|-----------------------------------|
G|-----------------------------------|
D|---6-6-6-3-----6-----6-----6-6-----|
A|---3-4-3-1-----3-----4-----3-4-----|
E|-4-----------4-----4-----4-------4-|

e|---------------------------------|
B|---------------------------------|
G|---------------------------------| Play
D|-6-6-6-3-----6-----6-----6-6-----|  3x
A|-3-4-3-1-----3-----4-----3-4-----|
E|-----------4-----4-----4-------4-|

e|---------------------------------|
B|---------------------------------|
G|-----x-6-------------------------|
D|-6---x-6-------------------------|
A|-6---x-4-------------------------|
E|-4-------------------------------|

e|---------------------------------|
B|---------------------------------|
G|-------6-x---------6-x-----6-x---| Play
D|-6-x---6-x---6-x---6-x---6-6-x---|  2x
A|-6-x---4-x---6-x---4-x---6-4-x---|
E|-4-x---------4-x---------4-------|


VERSE

e|---------------------------------|
B|---------------------------------|
G|-------6-x---------6-x-----6-x---| Play
D|-6-x---6-x---6-x---6-x---6-6-x---|  3x
A|-6-x---4-x---6-x---4-x---6-4-x---|
E|-4-x---------4-x---------4-------|

e|---------------------------------|
B|---------------------------------|
G|-------6-x---------6-x-----6-x---|
D|-6-x---6-x---6-x---6-x---6-6-x---|
A|-6-x---4-x---6-x---4-x---6-4-x---|
E|-4-x---------4-x---------4-----4-|


e|---------------------------------|
B|---------------------------------|
G|---------------------------------| Play
D|-6-6-6-3-----6-----6-----6-6-----|  4x
A|-3-4-3-1-----3-----4-----3-4-----|
E|-----------4-----4-----4-------4-|

e|-----------------------------------------------------------------|
B|-----------------------------------------------------------------|
G|-8-8-8-8-8-8-8-8-8-8-8-8-8-8-8-8-6-6-6-6-6-6-6-------------------|
D|-8-8-8-8-8-8-8-8-8-8-8-8-8-8-8-8-6-6-6-6-6-6-6-4-----------------|
A|-6-6-6-6-6-6-6-6-6-6-6-6-6-6-6-6-4-4-4-4-4-4-4-4-----------------|
E|-----------------------------------------------2-----------------|


REFRAIN

e|---------------------------------|
B|---------------------------------|
G|-----x-6-------------------------| Play
D|-6---x-6-------------------------|  3x
A|-6---x-4-------------------------|
E|-4-------------------------------|

e|---------------------------------|
B|---------------------------------|
G|-----x-6-------------------------|
D|-6---x-6---x-4-------------------|
A|-6---x-4---x-4-------------------|
E|-4---------x-2-------------------|

e|---------------------------------|
B|---------------------------------|
G|-------6-x---------6-x-----6-x---| Play
D|-6-x---6-x---6-x---6-x---6-6-x---|  2x
A|-6-x---4-x---6-x---4-x---6-4-x---|
E|-4-x---------4-x---------4-------|


VERSE

e|---------------------------------|
B|---------------------------------|
G|-------6-x---------6-x-----6-x---| Play
D|-6-x---6-x---6-x---6-x---6-6-x---|  3x
A|-6-x---4-x---6-x---4-x---6-4-x---|
E|-4-x---------4-x---------4-------|

e|---------------------------------|
B|---------------------------------|
G|-------6-x---------6-x-----6-x---|
D|-6-x---6-x---6-x---6-x---6-6-x---|
A|-6-x---4-x---6-x---4-x---6-4-x---|
E|-4-x---------4-x---------4-----4-|


e|---------------------------------|
B|---------------------------------|
G|---------------------------------| Play
D|-6-6-6-3-----6-----6-----6-6-----|  4x
A|-3-4-3-1-----3-----4-----3-4-----|
E|-----------4-----4-----4-------4-|

e|-----------------------------------------------------------------|
B|-----------------------------------------------------------------|
G|-8-8-8-8-8-8-8-8-8-8-8-8-8-8-8-8-6-6-6-6-6-6-6-------------------|
D|-8-8-8-8-8-8-8-8-8-8-8-8-8-8-8-8-6-6-6-6-6-6-6-4-----------------|
A|-6-6-6-6-6-6-6-6-6-6-6-6-6-6-6-6-4-4-4-4-4-4-4-4-----------------|
E|-----------------------------------------------2-----------------|


REFRAIN

e|---------------------------------|
B|---------------------------------|
G|-----x-6-------------------------| Play
D|-6---x-6-------------------------|  3x
A|-6---x-4-------------------------|
E|-4-------------------------------|

e|---------------------------------|
B|---------------------------------|
G|-----x-6-------------------------|
D|-6---x-6---x-4-------------------|
A|-6---x-4---x-4-------------------|
E|-4---------x-2-------------------|


INTERLUDE (while Angus plays his solo)

e|---------------------------------|
B|---------------------------------|
G|---------------------------------|
D|-6-x-------6-x-------------6-x-6-|
A|-6-x-------6-x-------------6-x-6-|
E|-4-x-------4-x-------------4-x-4-|

e|---------------------------------|
B|---------------------------------|
G|---------------------------------|
D|-x---------6-x-------------6-x-6-|
A|-x---------6-x-------------6-x-6-|
E|-x---------4-x-------------4-x-4-|

e|-----------------------------------------------------------------|
B|-----------------------------------------------------------------|
G|-------------------------------6---------------------------------|
D|-x---------6-x-------------6-x-6---------------------------------|
A|-x---------6-x-------------6-x-4---------------------------------|
E|-x---------4-x-------------4-x-----------------------------------|

e|---------------------------------|
B|---------------------------------|
G|---------------------------------|
D|-6-x-------6-x-------------6-x-6-|
A|-6-x-------6-x-------------6-x-6-|
E|-4-x-4-4-4-4-x-4-4-4-4-4-4-4-x-4-|

e|---------------------------------|
B|---------------------------------|
G|---------------------------------| Play
D|-x---------6-x-------------6-x-6-|  2x
A|-x---------6-x-------------6-x-6-|
E|-x-4-4-4-4-4-x-4-4-4-4-4-4-4-x-4-|

e|---------------------------------|
B|---------------------------------|
G|-6-6-6-6-6-6-6-6-6-4-4-4-4-4-4-4-|
D|-6-6-6-6-6-6-6-6-6-4-4-4-4-4-4-4-|
A|-4-4-4-4-4-4-4-4-4-2-2-2-2-2-2-2-|
E|---------------------------------|

e|---------------------------------|
B|---------------------------------|
G|-8-8-8-8-8-8-8-8-8-8-8-8-8-8-8-8-|
D|-8-8-8-8-8-8-8-8-8-8-8-8-8-8-8-8-|
A|-6-6-6-6-6-6-6-6-6-6-6-6-6-6-6-6-|
E|---------------------------------|

e|---------------------------------|
B|---------------------------------|
G|-6-----4-----6-------------------|
D|-6-----4-----6-----4-----4-4-4-4-|
A|-4-----2-----4-----4-----4-4-4-4-|
E|-------------------2-----2-2-2-2-|

e|---------------------------------|
B|---------------------------------|
G|-------6-x---------6-x-----6-x---|
D|-6-x---6-x---6-x---6-x---6-6-x---|
A|-6-x---4-x---6-x---4-x---6-4-x---|
E|-4-x---------4-x---------4-------|

e|---------------------------------|
B|---------------------------------|
G|-------6-----------6-------6-----|
D|-6-----6-----6-----6-----6-6-----|
A|-6-----4-----6-----4-----6-4-----|
E|-4-----------4-----------4-----4-|

e|---------------------------------|
B|---------------------------------|
G|---------------------------------| Play
D|-6-6-6-3-----6-----6-----6-6-----|  3x
A|-3-4-3-1-----3-----4-----3-4-----|
E|-----------4-----4-----4-------4-|

e|---------------------------------|
B|---------------------------------|
G|---------------------------------|
D|-6-6-6-3-----6-------------------|
A|-3-4-3-1-----6-------------------|
E|-----------4-4-------------------|

e|---------------------------------|
B|---------------------------------|
G|-----x-6-------------------------|
D|-6---x-6-------------------------|
A|-6---x-4-------------------------|
E|-4-------------------------------|


REFRAIN

e|---------------------------------|
B|---------------------------------|
G|-------6-------------------------| Play
D|-6---x-6-------------------------|  4x
A|-6---x-4-------------------------|
E|-4---x---------------------------|

e|---------------------------------|
B|---------------------------------|
G|-------6-x---------6-x-----6-x---| Play
D|-6-x---6-x---6-x---6-x---6-6-x---|  3x
A|-6-x---4-x---6-x---4-x---6-4-x---|
E|-4-x---------4-x---------4-------|

e|---------------------------------|
B|---------------------------------|
G|-------6-----------6-------6-----|
D|-6-----6-----6-----6-----6-6-----|
A|-6-----4-----6-----4-----6-4-----|
E|-4-----------4-----------4-------|

e|---------------------------------|---------------------------------|
B|---------------------------------|---------------------------------|
G|---------4-----------------------|---------4-----------------------|
D|-3---6---------------------------|-3---6-------6-6-6-6-6-6-6-6-6-6-|
A|-------------4-------------------|-------------6-6-6-6-6-6-6-6-6-6-|
E|---------------------------------|-------------4-4-4-4-4-4-4-4-4-4-|

e|---------|
B|---------|
G|---------|
D|-6-------|
A|-6-------|
E|-4-------|

************************************

| /   slide up
| \   slide down
| h   hammer-on
| p   pull-off
| ~   vibrato
| +   harmonic
| x   Mute note
| b   Bend
| pb  Pre-bend
| br  Bend release
| pbr Pre-bend release
| brb Bend release bend

************************************
Suggest correction
Creating personal tab
Creating personal tab
You can edit any tab online and save it as your Personal.

You can edit, replace or remove any tab part or add personal notes – all changes will be seen only by you.

Personal tabs can be accessed anytime from any device, even offline.
Learn more »
Give kudos to tab author, rate the tab!
1 2 3 4 5
comments
print report bad tab
guest
You may want to rate the tab now too:
select rating
Wanna post a correction for this tab? Suggest correction