Oops, an error
Loading. Please wait.

Sateliette Blues Tab

929 views 3 this week
2 commentsread comments
1 2 3 4 5
please rate
add to favorites
launch autoscroll
font size
0
reset
how to read this tab
guitar tuner
Tab Pro tools
  • play this tab
  • loop segment
  • change instrument
  • show fretboard
  • metronome
×
Best way to learn
"Sateliette Blues"
Autoscroll
slow
fast
+/-
esc
set tempo
stop
Contributor
Difficulty
intermediate
SATALITTE BLUES

Intro + verse:
E|------------------------|-------------------|----3--3-----3---------|
B|------------------------|----------------3--|----3--3--3--3---------|
G|--0--2--0----0--2--2----|----------------2--|----0--0--2--0---------|
D|--0--2--0----0--2--2----|----------------0--|----0--0--0--0---------|
A|--0--0--0----0--0--0----|-------------------|-----------------------|
E|------------------------|-------------------|-----------------------|

Guitar 2
E|------------------------|-------------------|----3--3--2--3---------|
B|------------------------|----------------3--|----3--3--3--3---------|
G|--2--2--2----2--2--2----|----------------2--|--0-0--0--2--0---------|
D|--0--2--0----0--2--2----|----------------0--|--0-0--0--0--0---------|
A|--0--0--0----0--0--0----|-------------------|-----------------------|
E|------------------------|-------------------|----3--3-----3---------|


 before chorus:                                    new satellite
|-------------------|----3--3-----3----------|------------------|
|----------------3--|----3--3--3--3-------3--|------------------|
|----------------2--|----0--0--2--0-------2--|------------------|
|----------------0--|----0--0--0--0-------0--|------------------|
|-------------------|------------------------|------------------|
|-------------------|------------------------|------------------|

Chorus:
Guitar 1
  blues                       new satellite  blues
|------------------------|-----------------------|--------2--------2-------|------2--2-----2-----|
|------------------------|--------------------3--|----3---3-----3--3--3----|---3--3--3--3--3--3--|
|--0--2--0----0--2--2----|------2--0----2--2--2--|----0---2-----0--2--0----|---0--2--2--0--2--0--|
|--0--2--0----0--2--2----|------2--0----2--2--0--|----0---0-----0--0--0----|---0--0--0--0--0--0--|
|--0--0--0----0--0--0----|------0-------0--0-----|-------------------------|---------------------|
|------------------------|-----------------------|-------------------------|---------------------|

guitar 2
|------------------------|-----------------------|-------------------------|------2--2-----2-----|
|------------------------|--------------------3--|----3---3-----3--3--3----|---3--3--3--3--3--3--|
|--2--2--2----2--2--2----|------2--0----2--2--2--|----0---2-----0--2--0----|---0--2--2--0--2--0--|
|--0--2--0----0--2--2----|------2--0----2--2--0--|----0---0-----0--0--0----|---0--0--0--0--0--0--|
|--0--0--0----0--0--0----|------0-------0--0-----|-------------------------|---------------------|
|------------------------|---------3-------------|----3---------3-----3----|---3--------3-----3--|

Guitar 1
------------------------|------------------------|-------------------------|---------------------|
------------------------|---------------------3--|--------3--3--3--3--3----|------1--1-----1-----|
--0--2--0----0--2--2----|------2--0-----2--2--2--|----0---2--2--0--2--0----|---0--0--0--0--0--0--|
--0--2--0----0--2--2----|------2--0-----2--2--0--|----0---0--0--0--0--0----|---0--------0-----0--|
--0--0--0----0--0--0----|------0--------0--0-----|-------------------------|------3--3-----3-----|
------------------------|------------------------|----3---------3-----3----|---3--------3-----3--|

guitar 2
------------------------|------------------------|-------------------------|---------------------|
------------------------|---------------------3--|----3---3-----3--3--3----|---3--3--3--3--3--3--|
--2--2--2----2--2--2----|------2--0-----2--2--2--|----0---2-----0--2--0----|---0--0--0--0--0--0--|
--0--2--0----0--2--2----|------2--0-----2--2--0--|----0---0-----0--0--0----|---0--------0-----0--|
--0--0--0----0--0--0----|------0--------0--0-----|-------------------------|------3--3-----3-----|
------------------------|---------3--------------|----3---------3-----3----|---3--------3-----3--|


 end of 2nd chorus:                                                     to solo:
|----------3-----3----3--|----------3-----3----3--|----------3-----3-------|
|----1--1--3--1--3----3--|----1--1--3--1--3----3--|----1--1--3--1--3----3--|
|----0--0--0--0--0----0--|----0--0--0--0--0----0--|----0--0--0--0--0----2--|
|----2--2--0--2--0----0--|----2--2--0--2--0----0--|----2--2--0--2--0----0--|
|----3--3-----3----------|----3--3-----3----------|----3--3-----3----------|
|------------------------|------------------------|------------------------|

solo chords same as 2nd chorus

 chorus part till end:
|------------------------|-----------------------|
|------------------------|--------------------3--|
|--0--2--0----0--2--2----|------2--0----2--2--2--|
|--0--2--0----0--2--2----|------2--0----2--2--0--|
|--0--0--0----0--0--0----|------0-------0--0-----|
|------------------------|-----------------------|

|----3--3-----3-------3--|----------3-----3------|
|----3--3--3--3--3----3--|----1--1--3--1--3------|
|----0--0--2--0--2----0--|----0--0--0--0--0------|
|----0--0--0--0--0----0--|----2--2--0--2--0------|
|------------------------|----3--3-----3---------|
|------------------------|-----------------------|


 end chords:
|--3----3---------3----|-------------------|-------------------|
|--3----3----3----3----|--3----------------|-------------------|
|--0----0----2----0----|--2----------------|--2----------------|
|--0----0----0----0----|--0----------------|--2----------------|
|----------------------|-------------------|--0----------------|
|----------------------|-------------------|-------------------|

solo

E|---------------------------------------------------------------------------------------------|
B|-----------------------------------------------------7b-5b~------------5-7-5-7-9b------------|
G|--7~~~~~~~~~~~~~~~~~~~~~~~~~~\/--7b---------------5~~7b-5b~-------5----5-7-5-7-9b--/5---5----|
D|-------------------------------------7-7-7--5-7-5-----------5~~~~---7--.-.-.-.--------7---7-7|
A|---------------------------------------------------------------------------------------------|
E|---------------------------------------------------------------------------------------------|

E|--8-8-5-5~~8b8b8b----8----8-8-5~~----------10--15-15-12-15-12---10~10~\-/5-8-8-5~~-----------|
B|--8-8-5-5~~-------10---\--8-8-5~~/10-12-12-----15-15-12-15-12-\/10~10~\-/5-8-8-5~~-8-8-5-----|
G|---------------------------------------------------------------------------------------------|
D|---------------------------------------------------------------------------------------------|
A|---------------------------------------------------------------------------------------------|
E|---------------------------------------------------------------------------------------------|

E|--------------------------------------------------------15-12-15-15-12-15-15---12-15-15-12-15|
B|--5-5-----8^5--5-----8-10b-10b~~~/15-15-15--15-12----15----12-15-15-12-15-15---12-15-15-12-15|
G|--5-5-7~~----5-5---7-----------------14-14--------14-----------------------------------------|
D|------7~~--------7---------------------------------------------------------------------------|
A|---------------------------------------------------------------------------------------------|
E|---------------------------------------------------------------------------------------------|
                            end solo
E|-15--17~~~~~~~~~~~\---------------|----------------------------------------------------------|
B|-15-------------------------------|----------------------------------------------------------|
G|----------------------------------|----------------------------------------------------------|
D|----------------------------------|----------------------------------------------------------|
A|----------------------------------|----------------------------------------------------------|
E|----------------------------------|----------------------------------------------------------|

tid bits during chorus                  pm..................
E|---------------------------|--------|-----------------------|-----------5-7--10~~~~~---------|
B|--------12-15b-------------|--------|---0-5-7-0-5-7---5-----|--------------------------------|
G|--12-14--------12\---------|--------|---0-5-7-0-5-7-7-5-5---|--------------------------------|
D|---------------------------|--------|---------------7---5---|--5~~~~~------------------------|
A|---------------------------|--------|-----------------------|--------------------------------|
E|---------------------------|--------|-----------------------|--------------------------------|

E|--10-12-10----------------------------------------------------8b--8b8b8b--8-8/-8-10-8-10-8-10|
B|-----------10-12-10-/-\--7-7^5---5-0-----0-5------------------8b----------8-8----------------|
G|-------------------------7-7^5-7-5-0-----0-5-7-----5~~~~~~-----------------------------------|
D|-------------------------------7-------------7-0---------------------------------------------|
A|---------------------------------------------------------------------------------------------|
E|---------------------------------------------------------------------------------------------|

E|-10-12^10\8-------------------17b~~~~17-17b>>>b>>>>b>>>>b-15~~~~~~~~~~~~~~~~~~~~~-\----------|
B|------------10----0-5-5-0-5-0----------------------------------------------------------------|
G|------------------0-5-5-0-5-0----------------------------------------------------------------|
D|---------------------------------------------------------------------------------------------|
A|---------------------------------------------------------------------------------------------|
E|---------------------------------------------------------------------------------------------|

E|-------------------------------------------------0-3-5-5~~~------5-8-5-----------------------|
B|--8--8--7--8--7~~~~~~~~~~------------0-3-5^3^0---0-3-5-------5-8-------8-5-------------------|
G|--7--7--7--7---------------------0-4---------------------------------------7-5-----7~~~--0^2-|
D|-------------------------------------------------------------------------------5-7-------0^2-|
A|-----------------------------------------------------------------------------------------0-0-|
E|---------------------------------------------------------------------------------------------|
comments
We did not receive enough feedback on this tab! Please rate:
print report bad tab
1 2 3 4 5
2 comments total.
0 reply
AcdcTXfan wrote on July 15 2006, 08:52 pm

just so you know, satellite is mispelled twice

0 reply
big_d wrote on December 5 2006, 04:30 pm

awsome this gets a what five!!!!!!!!!!!!!!!Hell yah it does!

I want to post or [tab]
guest
You may want to rate the tab now too:
select rating
Please do not post tabs as comments. Select "correction" instead!