Oops, an error
Loading. Please wait.

Shoot To Thrill Bass Tab

version 2
version 2

Whole song

Interactive

6,042 views 9 this week
no commentswrite comment
1 2 3 4 5
accurate
x 3
add to favorites
launch autoscroll
font size
0
reset
guitar tuner
Tab Pro tools
  • play this tab
  • loop segment
  • change instrument
  • show fretboard
  • metronome
×
Best way to learn
"Shoot To Thrill"
Autoscroll
slow
fast
+/-
esc
set tempo
stop
Contributor
#----------------------------------PLEASE NOTE---------------------------------#
#This file is the author's own work and represents their interpretation of the #
#song. You may only use this file for private study, scholarship, or research. #
#------------------------------------------------------------------------------#

SHOOT TO THRILL (Bassline)




Transcribed by Gary Ramsey

 

 

Gtr I (E A D G) - 'Staff'


  Q=140
 4/4
  Gtr I
  W          W          W          W
|----------|----------|----------|------|
|----------|----------|----------|------|
|----------|----------|----------|------|
|----------|----------|----------|------|


  W          W          W          W
|----------|----------|----------|------|
|----------|----------|----------|------|
|----------|----------|----------|------|
|----------|----------|----------|------|


  H    E E E E   E E E E E E E E   E E E E E E E E   E E E E E E E E
|------2-2-2-2-|-2-2-2-2-2-2-2-2-|-2-2-2-2-2-2-2-2-|-2-2-2-2-2-2-2---|
|--------------|-----------------|-----------------|---------------0-|
|--------------|-----------------|-----------------|-----------------|
|--------------|-----------------|-----------------|-----------------|


  E E E E E E E E   E E E E E E E E   E E E E E E E E   E E E E E E E E
|-----------------|-----------------|-----------------|-----------------|
|-0---------------|-----------------|-----------------|-----------------|
|---4-------------|-----------------|-----------------|-----------------|
|-----5-5-5-5-5-5-|-5-5-5-5-5-5-5-5-|-5-5-5-5-5-5-5-5-|-5-5-5-5-5-5-5-5-|


  E E E E E E E E   E E E E E E E E   E E E E E E E E   E E E E E E E E
|-----------------|-----------------|-----------------|-----------------|
|-----------------|-----------------|-----------------|-----------------|
|-----------------|-----------------|-----------------|-----------------|
|-5-5-5-5-5-5-5-5-|-5-5-5-5-5-5-5-5-|-5-5-5-5-5-5-5-5-|-5-5-5-5-5-5-5-5-|


  E E E E E E E E   E E E E E E E E   E E E E E E E E   E E E E E E E E
|-----------------|-----------------|-----------------|-----------------|
|-----------------|-----------------|-----------------|-----------------|
|-5-4---0-0-0-0-0-|-0-0-0-0-0-0-0-0-|-0-0-0-0-0-0-0-0-|-0-0-0-0-0-0-0-0-|
|-----3-----------|-----------------|-----------------|-----------------|


  E E E E E E E E   E E E E E E E E   E E E E E E E E   E E E E E E E E
|-----------------|-----------------|-----------------|-----------------|
|-----------------|-----------------|-----------------|-----------------|
|-0-0-0-0-0-0-0-0-|-0-0-0-0-0-0-0-0-|-0-0-0-0-0-0-0-0-|-0-0-0-0-0-0-0-0-|
|-----------------|-----------------|-----------------|-----------------|


  E E E E E E E E   E E E E E E E E   E E E E E E E E   E E E E E E E E
|-----------------|-----------------|-----------------|-----------------|
|-----------------|-----------------|-----------------|-----------------|
|-0-0-0-0-3-3-3-3-|-3-3-3-3-3-3-3-3-|-3-3-3---3-3-3-3-|-3-3-3-3-3-3-3-3-|
|-----------------|-----------------|-------3---------|-----------------|


  E E E E E E E E   E E E E E E E E   E E E E +E  E E E   E E E E E E E E
|-----------------|-----------------|-------------------|-----------------|
|-----------------|-----------------|-------------5-5---|-5-5---5-5---5-5-|
|-3-----0-5-5-5-5-|-5-5-5-5-5-5-5-5-|-5-5-5-7-(7)-----7-|-----7-----7-----|
|---0-3-----------|-----------------|-------------------|-----------------|


  E E E E E E E E   E E E E E E E E   E E E E E E E E   E E E E E E E E
|-----------------|-----------------|-----------------|-----------------|
|---5-5-----------|-----------------|-----------------|-----------------|
|-7-----7---------|-----------------|-------5-5-5-5-5-|-5-5-5-5-5-5-5-5-|
|---------5-5-5-5-|-5-5-5-3-3-3-3-3-|-3-3-3-----------|-----------------|


  E E E E E E E E   E E E E E E E E   E E E E E E E E   E E E E E E E E
|-----------------|-----------------|-----------------|-----------------|
|-----------------|-----------------|-----------------|-----------4---5-|
|-5-3-3-0-0-0-0-0-|-0-0-0-----------|-------3-5-5-5-5-|-5-5-5-5-5-------|
|-----------------|-------3-3-3-3-2-|-3-3-3-----------|-----------------|


  E E E E E E E E   E E E E E E E E   E E E E E E E E   E E E E E E E E
|-----------------|-----------------|-----------------|-----------------|
|---6-7-----------|-----------------|-----------------|-----------------|
|-------7---------|-----------------|-5-4-------------|-----------------|
|---------5-5-5-5-|-5-5-5-5-5-5-5-5-|-----5-5-5-5-5-5-|-5-5-5-5-5-5-5-5-|


  E E E E E E E E   E E E E E E E E   E E E E E E E E   E E E E E E E E
|-----------------|-----------------|-----------------|-----------------|
|-----------------|-----------------|-----------------|-----------------|
|-5-4-------------|-----------------|-----------------|-----------------|
|-----5-4-5-5-5-5-|-5-5-5-5-5-5-5-5-|-5-5-5-5-5-5-5-5-|-5-5-5-5-5-5-5-5-|


  E E E E E E E E   E E E E E E E E   E E E E E E E E   E E E E E E E E
|-----------------|-----------------|-----------------|-----------------|
|-----------------|-----------------|-----------------|-----------------|
|-----------------|-----------------|-----------------|-----------------|
|-5-5-5-5-5-5-5-5-|-5-5-5-5-5-5-5-5-|-5-5-5-5-5-5-5-5-|-5-5-5-5-5-5-5-5-|


  E E E E E E E E   E E E E E E E E   E E E E E E E E   E E E E E E E E
|-----------------|-----------------|-----------------|-----------------|
|-----------------|-----------------|-----------------|-----------------|
|---------3-3-3-3-|-3-3-3-3-3-3-3-3-|-3---0---3-3-3-3-|-3-3-3-3-3-------|
|-5-5-5-5---------|-----------------|---0---3---------|-----------0-0-0-|


  E E E E E E E E   E E E E E E E E   E E E E +E  E E E   E E E E E E E E
|-----------------|-----------------|-------------------|-----------------|
|-----------------|-----------------|-------------------|-----------------|
|-------0-5-5-5-5-|-5-5-5-5-5-5-5-5-|-5-5-5-------------|-----------------|
|-1-1-3-----------|-----------------|-------0-(0)-3-3-0-|-3-3-0-3-3-0-4-4-|


  E E E E E E E E   E E E E E E E E   E E E E E E E E   E E E E E E E E
|-----------------|-----------------|-----------------|-----------------|
|-----------------|-----------------|-----------------|---3-4-----------|
|-----------------|-----------------|-------5-5-5-5-5-|-5-----5---3-3-3-|
|-0-5-5-0-5-5-5-5-|-5-5-5-3-3-3-3-3-|-3-3-3-----------|---------5-------|


  E E E E E E E E   E E E E E E E E   E E E E E E E E   E E E E E E E E
|-----------------|-----------------|-----------------|-----------------|
|-----------------|-----------------|-----------------|-----------------|
|-0-2-2---0-0-0-0-|-0-0-0-----------|-------5-5-5-5-5-|-5-5-5-5-5-------|
|-------3---------|-------3-3-3-3-3-|-3-3-3-----------|-----------0-2-0-|


  E E E E E E E E   E E E E E E E E   E E E E E E E E   E E E E E E E E
|-----------------|-----------------|-----------------|-----------------|
|-----------------|-----------------|-----------------|-----------4-4-5-|
|-----------------|-----------------|-------5-5-5-5-5-|-5-5-5-5-5-------|
|-3-0-4-4-5-5-5-5-|-5-5-5-7-7-7-7-6-|-7-7-7-----------|-----------------|


  E E E E E E E E   E E E E E E E E   E E E E H      +W
|-----------------|-----------------|--------------|--------|
|-5-6-6-7---------|-----------------|--------------|--------|
|-----------------|-----------------|---------5----|-(5)----|
|---------5-5-5-5-|-5-5-5-3-3-3-3-3-|-3-3-3-3------|--------|


  +Q.   E +E  E Q    W          Q  E E +E  E Q    W
|------------------|----------|-----------------|------|
|------------------|----------|-----------------|------|
|-(5)--------------|----------|-----------------|------|
|-------0-(0)------|----------|------0-(0)------|------|


  E E E E +E  E E E   E E E E E E E E   E E E E +E  E E E   E E E E E E E E
|-------------------|-----------------|-------------------|-----------------|
|-------------5-5---|-5-5---5-5---5-5-|-------------------|-----------------|
|-----5-7-(7)-----7-|-----7-----7-----|-7-5-7-------------|-----------------|
|---7---------------|-----------------|-------0-(0)-3-3-0-|-3-3-0-3-3-0-4-4-|


  E E E E E E E E   E E E E E E E E   E E E E E E E E   E E E E E E E E
|-----------------|-----------------|-----------------|-----------------|
|-----------------|-----------------|-----------------|-----------------|
|-----------------|-----------------|-5-4-------------|-----------------|
|-0-5-5-4-5-5-5-5-|-5-5-5-5-5-5-5-5-|-----5-5-5-5-5-5-|-5-5-5-5-5-5-5-5-|


  E E E E E E E E   E E E E E E E E   E E E E E E E E   E E E E E E E E
|-----------------|-----------------|-----------------|-----------------|
|-----------------|-----------------|-----------------|-----------------|
|-5-4-------------|-----------------|-5-4-------------|-----------------|
|-----5-5-5-5-5-5-|-5-5-5-5-5-5-5-5-|-----5-5-5-5-5-5-|-5-5-5-5-5-5-5-5-|


  E E E E E E E E   E E E E E E E E   E E E E E E E E   E E E E E E E E
|-----------------|-----------------|-----------------|-----------------|
|-----------------|-----------------|-----------------|-----------------|
|-5-4-----3-3-3-3-|-3-3-3-3-3-3-3-3-|-3---0---3-3-3-3-|-3-3-3-3-3-3-3---|
|-----5-5---------|-----------------|---0---3---------|---------------0-|


  E E E E E E E E   E E E E E E E E   E E E E +E  E E E   E E E E E E E E
|-----------------|-----------------|-------------------|-----------------|
|-----------------|-----------------|-------------5-5---|-5-5---5---------|
|---------5-5-5-5-|-5-5-5-5-5-5-5-5-|-5-5-5-7-(7)-----7-|-----7-----------|
|-2-0-3-0---------|-----------------|-------------------|---------3-0-3-3-|


  E E E E E E E E   E E E E E E E E   E E E E E E E E   E E E E E E E E
|-----------------|-----------------|-----------------|-----------------|
|-----------------|-----------------|-----------------|-----------------|
|-----------------|-----------------|-------5-5-5-5-5-|-5-5-5-5-5-5-5-5-|
|-0-4-4-0-5-5-5-5-|-5-5-5-3-3-3-3-3-|-3-3-3-----------|-----------------|


  E E E E E E E E   E E E E E E E E   E E E E E E E E   E E E E E E E E
|-----------------|-----------------|-----------------|-----------------|
|-----------------|-----------------|-----------------|-----------------|
|-5-5-5-5---------|-----------------|-------5-5-5-5-5-|-5-5-5-5-5-5-5-5-|
|---------5-5-5-5-|-5-5-5-3-3-3-3-3-|-3-3-3-----------|-----------------|


  E E E E E E E E   E E E E E E E E   E E E E E E E E   E E E E E E E E
|-----------------|-----------------|-----------------|-----------------|
|-----------------|-----------------|-------0-0-0-0-0-|-0-0-0-0-0-0-0-0-|
|-5---3-0-0-0-0-0-|-0-0-0-2-2-2-2-2-|-2-2-2-----------|-----------------|
|---5-------------|-----------------|-----------------|-----------------|


  E E E E H      +H     H      +H     H      +W
|--------------|-------------|-------------|--------|
|-0------------|-------------|-------------|--------|
|---3-3---0----|-(0)---------|--------5----|-(5)----|
|-------3------|--------3----|-(3)---------|--------|


  +H     H      W          W          W
|-------------|----------|----------|------|
|-------------|----------|----------|------|
|-(5)---------|----------|----------|------|
|-------------|----------|----------|------|


  W          W          W          H    E E E E
|----------|----------|----------|--------------|
|----------|----------|----------|--------------|
|----------|----------|----------|--------------|
|----------|----------|----------|--------0-1-2-|


  +E  E E E +H       W          W          W
|------------------|----------|----------|------|
|------------------|----------|----------|------|
|------------------|----------|----------|------|
|-(2)-3-4-5-(5)----|----------|----------|------|


  W          W          W          H    E E E E
|----------|----------|----------|--------------|
|----------|----------|----------|--------------|
|----------|----------|----------|--------------|
|----------|----------|----------|--------0-1-2-|


  +E  E E E E E Q    E E Q  E E Q    E E Q  E E Q    E E Q  E E Q
|------------------|---------------|---------------|---------------|
|------------------|---------------|---------------|---------------|
|------------------|---------------|----------3----|-3--------3----|
|-(2)-3-4-5-5-5----|-5--------3----|-3-------------|---------------|


  E E Q  E E Q    E E Q  E E Q    E E Q  E E Q    E E Q  E E E E
|---------------|---------------|---------------|----------------|
|---------------|---------------|---------------|----------------|
|-3--------0----|-0-------------|----------3----|-3--------------|
|---------------|----------3----|-3-------------|----------0-1-2-|


  E E E E E E E E   Q  E E E E E E   E E E E E E E E   E E E E +E  E E E
|-----------------|----------------|-----------------|-------------------|
|-----------------|----------------|-----------------|---3-4-------------|
|-----------------|----------------|-------3-5-5---5-|-5-----5-(5)-5-5---|
|-2-3-4-4-5-5---5-|-5--5-3-3-3-3-3-|-3-3-3-----------|-----------------5-|


  E E E E E E E E   Q  E E E E E E   E E E E E E E E   E E E E E E E E
|-----------------|----------------|-----------------|-----------------|
|-----------------|----------------|-----------------|-----------------|
|-5-----0-0-0---0-|-0--0-----------|-------3-5-5-5-5-|-5-5-5-5-5-------|
|---0-3-----------|------3-3-3-3-3-|-3-3-3-----------|-----------0-1-2-|


  E E E E E E E E   E E E E E E E E   E E E E E E E E   E E E E E E E E
|-----------------|-----------------|-----------------|-----------------|
|-----------------|-----------------|-----------------|-----------------|
|-----------------|-----------------|-------5-5-5-5-5-|-5-5-5-5-5-5-5-5-|
|-2-3-4-4-5-5-5-5-|-5-5-5-7-7-7-7-7-|-7-7-7-----------|-----------------|


  E E E E E E E E   E E E E E E E E   E E E E E E E E   E E E E E E E E
|-----------------|-----------------|-----------------|-----------------|
|-----------------|-----------------|-----------------|-----------------|
|-5-5-5-5---------|-----------------|-------5-5-5-5-5-|-5-5-5-5-5-5-5-5-|
|---------5-5-5-5-|-5-5-5-7-7-7-7-7-|-7-7-7-----------|-----------------|


  E E E E E E E E   E E E E E E E E   E E E E E E E E   E E E E E E E E
|-----------------|-----------------|-----------------|-----------------|
|-----------------|-----------------|-----------------|-----------------|
|-5-5-5-5---------|-----------------|-------5-5-5-5-5-|-5-5-5-5-5-5-5-5-|
|---------5-5-5-5-|-5-5-5-7-7-7-7-7-|-7-7-7-----------|-----------------|


  E E E E E E E E   E E E E E E E E   E E E E E E E E   E E E E E E E E
|-----------------|-----------------|-----------------|-----------------|
|-----------------|-----------------|-----------------|-----------------|
|-5-5-5-5---------|-----------------|-------5-5-5-5-5-|-5-5-5-5-5-5-5-5-|
|---------5-5-5-5-|-5-5-5-3-3-3-3-3-|-3-3-3-----------|-----------------|


  E E E E E E E E   E E E E E E E E   E E E E E E E E   E E E E E E E E
|-----------------|-----------------|-----------------|-----------------|
|-----------------|-----------------|-----------------|-----------------|
|-5-5-5-5---------|-----------------|-------5-5-5-5-5-|-5-5-5-5-5-5-5-5-|
|---------5-5-5-5-|-5-5-5-7-7-7-7-7-|-7-7-7-----------|-----------------|


  E E E E E E E E   E E E E E E E E   E E E E Q  +S  S E   +Q   Q  +E  E +Q
|-----------------|-----------------|--------------------|---------------------|
|-----------------|-----------------|--------------------|---------------------|
|-5-5-5-5---------|-----------------|-------5-5--(5)---5-|-(5)--5--(5)-5-(5)---|
|---------5-5-5-5-|-5-5-5-7-7-7-7-7-|-7-7-7--------------|---------------------|


  Q  Q  Q  +S  S E   +Q   Q  +E  E +Q     Q  Q  H      H    H
|------------------|--------------------|------------|-----------|
|------------------|--------------------|------------|-----------|
|-------5--(5)---5-|-(5)--5--(5)-5-(5)--|-------5----|-5----5----|
|-3--3-------------|--------------------|-3--3-------|-----------|


  +H     H      H    H      +W           +W
|-------------|-----------|------------|--------|
|-------------|-----------|------------|--------|
|-(5)---------|------0----|-(0)--------|-(0)----|
|--------3----|-3---------|------------|--------|


  +Q..   S e. S Q
|--------------------*|
|--------------------*|
|-(0)------0---------*|
|--------------------*|




--------------------------------------------------------------------------------


Duration Legend
---------------
W - whole; H - half; Q - quarter; E - 8th; S - 16th; T - 32nd; X - 64th; a - acciaccatura
+ - note tied to previous; . - note dotted; .. - note double dotted
Uncapitalized letters represent notes that are staccato (1/2 duration)
Irregular groupings are notated above the duration line
Duration letters will always appear directly above the note/fret number it represents the
duration for.  Duration letters with no fret number below them represent rests.  Multi-
bar rests are notated in the form Wxn, where n is the number of bars to rest for.  Low
melody durations appear below the staff

Tablature Legend
----------------
 h   - hammer-on
 p   - pull-off
 b   - bend
 pb  - pre-bend
 r   - bend release (if no number after the r, then release immediately)
 /\  - slide into or out of (from/to "nowhere")
 s   - legato slide
 S   - shift slide
 - natural harmonic
[n]  - artificial harmonic
n(n) - tapped harmonic
 ~   - vibrato
 tr  - trill
 T   - tap
 TP  - trem. picking
 PM  - palm muting
\n/  - tremolo bar dip; n = amount to dip
 \n  - tremolo bar down
 n/  - tremolo bar up
/n\  - tremolo bar inverted dip
 =   - hold bend; also acts as connecting device for hammers/pulls
 <> - volume swell (louder/softer)
 x   - on rhythm slash represents muted slash
 o   - on rhythm slash represents single note slash

Misc Legend
-----------
 |  - bar
||  - double bar
||o - repeat start
o|| - repeat end
*|  - double bar (ending)
 :  - bar (freetime)
 $  - Segno
 &  - Coda
Tempo markers -  = BPM(8/16=s8/s16), where s8 = swing 8ths, s16 = swing 16ths



--------------------------------------------------------------------------------

** Generated using Power Tab Editor by Brad Larsen: The Official Power Tab Web Site
comments
We did not receive enough feedback on this tab! Please rate:
print report bad tab
1 2 3 4 5
I want to post or [tab]
guest
You may want to rate the tab now too:
select rating
Please do not post tabs as comments. Select "correction" instead!