Oops, an error
Loading. Please wait.

Shoot To Thrill Tab

version 5
version 5

Whole song

Interactive

7,313 views 24 this week
no commentswrite comment
1 2 3 4 5
please rate
add to favorites
launch autoscroll
font size
0
reset
how to read this tab
guitar tuner
Tab Pro tools
  • play this tab
  • loop segment
  • change instrument
  • show fretboard
  • metronome
×
Best way to learn
"Shoot To Thrill"
Autoscroll
slow
fast
+/-
esc
set tempo
stop
Contributor
oga
                 SHOOT TO THRILL
                (By Lightning)

  Hope you enjoy it

             Intro
    (*Let ring)       (Do 8x)
E-------------------I-----------|I
B-------------------I-----------|I
G------------2*-----I-------2---|I
D-2----------2*-----I-2-----2---|I
A-0--3--4----0*-----I-0—3-4—0---|I

     Verse 1
    (4 Times)
E—3—2—3—2------------|I
B—3—3—3—3—-----------|I
G—0—2—0—2—-2---------|I
D—0---0----0----2----|I
A—X---X------3--0----|I
E-3---3--------------|I


     Pre-chorus
        (2x)
E3—3—3-3-3-3-3-3-3-|
B5—3—5-5-5-5-5-5-5-|
G5—0—5-5-5-5-5-5-5-|
D5—0—5-5-5-5-5-5-5-|
A3—X—3-3-3-3-3-3-3-|
E--3---------------|

      (1x)
E-2---2-2-2-2-2-2-2-|
B-3—2—3-3-3-3-3-3-3-|
G-2—2—2-2-2-2-2-2-2-|
D---2---------------|
A-------------------|
E-------------------|

    (5x)
E----------|
B---8-8----|
G---7-7----|
D---6-6----|
A---7-7----|
E-0--------|


            Chorus
          (Play 2x)
   A          G            D
E-----------I-3-3-3-3-3-I-2-2-2-2-2-2-2-2-2-2-|
B-2-2-2-2-2-I-3-3-3-3-3-I-3-3-3-3-3-3-3-3-3-3-|
G-2-2-2-2-2-I-0-0-0-0-0-I-2-2-2-2-2-2-2-2-2-2-|
D-2-2-2-2-2-I-0-0-0-0-0-I---------------------|
A-----------I-x-x-x-x-x-I---------------------|
E-----------I-3-3-3-3-3-I---------------------|


E----------------I---------------|I
B----------------I---------------|I
G----------2*----I----------2----|I
D-2--------2*----I-2--------2----|I
A-0--3--4--0*----I-0—3--4---0----|I

     Verse 2

 (4 Times)
E—3—2—3—2------------|I
B—3—3—3—3—-----------|I
G—0—2—0—2—2----------|I
D—0---0---0-----2----|I
A—X---X------3--0----|I
E—3---3--------------|I


     Pre-chorus
    (2x)
E3—3—3-3-3-3-3-3-3-|
B5—3—5-5-5-5-5-5-5-|
G5—0—5-5-5-5-5-5-5-|
D5—0—5-5-5-5-5-5-5-|
A3—X—3-3-3-3-3-3-3-|
E--3---------------|

         (1x)
E-2---2-2-2-2-2-2-2--|
B-3—2—3-3-3-3-3-3-3--|
G-2—2—2-2-2-2-2-2-2--|
D---2----------------|
A--------------------|
E--------------------|







 (5x)
E----------|
B---8-8----|
G---7-7----|
D---6-6----|
A---7-7----|
E-0--------|


          Chorus
     (Do 3x)
   A          G              D
E-----------I-3-3-3-3-3-I-2-2-2-2-2-2-2-2-2-2-|
B-2-2-2-2-2-I-3-3-3-3-3-I-3-3-3-3-3-3-3-3-3-3-|
G-2-2-2-2-2-I-0-0-0-0-0-I-2-2-2-2-2-2-2-2-2-2-|
D-2-2-2-2-2-I-0-0-0-0-0-I---------------------|
A-----------I-x-x-x-x-x-I---------------------|
E-----------I-3-3-3-3-3-I---------------------|








 A            G            D
E-----------I-3-3-3-3-3-I-2-2-2-|
B-2-2-2-2-2-I-3-3-3-3-3-I-3-3-3-|
G-2-2-2-2-2-I-0-0-0-0-0-I-2-2-2-|
D-2-2-2-2-2-I-0-0-0-0-0-I-------|
A-----------I-x-x-x-x-x-I-------|
E-----------I-3-3-3-3-3-I-------|

         Interlude

(Play 20x)
E-----------|
B-----8-8-8-|
G-----7-7-7-|
D-----6-6-6-|
A-----7-7-7-|
E-0---------|

(Play 4x)
E----------------------|
B-8-7-8-7-7------------|
G-7-7-7-7-7---5--------|
D-----------------7-7~-|
A----------------------|
E----------------------|


           Solo

E-----15----------15----------------------|
B-15b-------15b--------15b-15b—13-----13--|
G----------------------------------14-----|
D-----------------------------------------|
A-----------------------------------------|
E-----------------------------------------|


E-----15----------15----------15--15—15b\17-|
B-15b--------15b--------15b-------15-15b\17-|
G-------------------------------------------|
D-------------------------------------------|
A-------------------------------------------|
E-------------------------------------------|

E-------17----------17------17--17b-17b-17b-|
B-17b--------17b--------17b-----17b-17b-17b-|
G-------------------------------------------|
D-------------------------------------------|
A-------------------------------------------|
E-------------------------------------------|


     (Play 5x)
E-------------|
B----12-12----|
G----12-12----|
D-------------|
A-------------|
E-0-----------|



            Chorus

(Play 3x)
   A          G              D
E-----------I-3-3-3-3-3-I-2-2-2-2-2-2-2-2-2-2-|
B-2-2-2-2-2-I-3-3-3-3-3-I-3-3-3-3-3-3-3-3-3-3-|
G-2-2-2-2-2-I-0-0-0-0-0-I-2-2-2-2-2-2-2-2-2-2-|
D-2-2-2-2-2-I-0-0-0-0-0-I---------------------|
A-----------I-x-x-x-x-x-I---------------------|
E-----------I-3-3-3-3-3-I---------------------|






E---I-3—I-2-|
B-2—I-3—I-3-|
G-2—I-0—I-2-|
D-2—I-0—I---|
A---I-X—I---|
E---I-3—I---|

         Outro

       (Repeat 2x)
(2x)            (2X)        (2x)

E-9---9--9--9--I-7-7-7-7-I-10-10-10-10-|
B-10-10--10-10-I-8-8-8-8-I-10-10-10-10-|
G-9---9--9--9--I-7-7-7-7-I—7—7—7--7----|
D--------------I---------I-------------|
A--------------I---------I-------------|
E--------------I---------I-------------|

          Then repeat 1x
E-9—9—--9-9-I-7-7-7-7-I-10-10-10-10-|
B10-10-10-10I-8-8-8-8-I-10-10-10-10-|
G-9—9—--9—9-I-7-7-7-7-I—7—7—7—7-----|
D-----------I---------I-------------|
A-----------I---------I-------------|
E-----------I---------I-------------|

 Sorry but I don’t know the outro solo, I’ll post it when I learn it.
comments
We did not receive enough feedback on this tab! Please rate:
print report bad tab
1 2 3 4 5
I want to post or [tab]
guest
You may want to rate the tab now too:
select rating
Please do not post tabs as comments. Select "correction" instead!