Oops, an error
Loading. Please wait.

Shot Down In Flames Bass Tab

version 3
version 3

Whole song

Interactive

6,338 views 9 this week
4 commentsread comments
1 2 3 4 5
excellent!
x 3
add to favorites
launch autoscroll
font size
0
reset
guitar tuner
Tab Pro tools
  • play this tab
  • loop segment
  • change instrument
  • show fretboard
  • metronome
×
Best way to learn
"Shot Down In Flames"
Autoscroll
slow
fast
+/-
esc
set tempo
stop
Contributor
AC/DC-Shot Down in Flames
Highway to Hell (1979)
Tabbed by: playinbass1432
Email: playinbass1432@hotmail.com

Standard Tuning

Intro: (Rest for a few bars and then come in at 0:16)

   A                 D                 A                 D
G|-----------------|-----------------|-----------------|-----------------|
D|-----------------|-----------------|-----------------|-----------------|
A|---------------3-|-5-5-5-5-5-5-5-5-|---------------3-|-5-5-5-5-5-5-5-5-|
E|-5-5-5-5-5-5-5---|-----------------|-5-5-5-5-5-5-5---|-----------------|

Verse 1:

   A                 D                 A                 D
G|-----------------|-----------------|-----------------|-----------------|
D|-----------------|-----------------|-----------------|-----------------|
A|---------------3-|-5-5-5-5-5-5-5-5-|---------------3-|-5-5-5-5-5-5-5-5-|
E|-5-5-5-5-5-5-5---|-----------------|-5-5-5-5-5-5-5---|-----------------|

   A                 D                 A                 D
G|-----------------|-----------------|-----------------|-----------------|
D|-----------------|-----------------|-----------------|-----------------|
A|---------------3-|-5-5-5-5-5-5-5-5-|---------------3-|-5-5-5-5-5-5-5-5-|
E|-5-5-5-5-5-5-5---|-----------------|-5-5-5-5-5-5-5---|-----------------|

   A                 D                 A                 D
G|-----------------|-----------------|-----------------|-----------------|
D|-----------------|-----------------|-----------------|-----------------|
A|---------------3-|-5-5-5-5-5-5-5-5-|---------------3-|-5-5-5-5-5-5-5-5-|
E|-5-5-5-5-5-5-5---|-----------------|-5-5-5-5-5-5-5---|-----------------|

   A                 D                 A                 D
G|-----------------|-----------------|-----------------|-----------------|
D|-----------------|-----------------|-----------------|-----------------|
A|---------------3-|-5-5-5-5-5-5-5-5-|---------------3-|-5---------------|
E|-5-5-5-5-5-5-5---|-----------------|-5-5-5-5-5-5-5---|-----------------|

Chorus 1:

   A  G    D C       A  G   D C        A  G   G  C       A  G  D
G|-----------------|-----------------|-----------------|-----------------|
D|-----------------|-----------------|-----------------|-----------------|
A|--------5--3-----|-------5--3------|--------5--3-----|-------5-5-5-5-5-|
E|-5--3----------3-|-5--3-------0-3-0|-5--3------------|-5--3------------|

   D
G|-----------------|
D|-----------------|
A|-5-5-5-5-5-5-5-5-|
E|-----------------|


Verse 2:

   A                 D                 A                 D
G|-----------------|-----------------|-----------------|-----------------|
D|-----------------|-----------------|-----------------|-----------------|
A|---------------3-|-5-5-5-5-5-5-5-5-|---------------3-|-5-5-5-5-5-5-5-5-|
E|-5-5-5-5-5-5-5---|-----------------|-5-5-5-5-5-5-5---|-----------------|

   A                 D                 A                 D
G|-----------------|-----------------|-----------------|-----------------|
D|-----------------|-----------------|-----------------|-----------------|
A|-----------------|-5-5-5-5-5-5-5-5-|---------------3-|-5-5-5-5-5-5-5-5-|
E|-5-5-5-5-5-5-5-5-|-----------------|-5-5-5-5-5-5-5---|-----------------|

   A                 D                 A                 D
G|-----------------|-----------------|-----------------|-----------------|
D|-----------------|-----------------|-----------------|-----------------|
A|---------------3-|-5-5-5-5-5-5-5-5-|---------------3-|-5-5-5-5-5-5-5-5-|
E|-5-5-5-5-5-5-5---|-----------------|-5-5-5-5-5-5-5---|-----------------|

   A                 D                 A                 D
G|-----------------|-----------------|-----------------|-----------------|
D|-----------------|-----------------|-----------------|-----------------|
A|---------------3-|-5-5-5-5-5-5-5-5-|-----------------|-5---5-5-5-5-5-5-|
E|-5-5-5-5-5-5-5---|-----------------|-5-5-5-5-5-5-5-3-|-----------------|

   D
G|-----------------|
D|-----------------|
A|-5-5-5-5-5-5-5-5-|
E|-----------------|

Chorus 2:

   A   G     D  C        A  G  D  C        A  G   D  C    A  G  D
G|-----------------|-----------------|------------------|-----------------|
D|-----------------|-----------------|------------------|-----------------|
A|---------3-5--3--|-----------5--3--|------------5--3--|-------5-5-5-5-5-|
E|-5--3--5--------0|-3-0-5--3-------0|-3-0-5--3---------|-5--3------------|

    D
G|-----------------|-----------------|-----------------|
D|-----------------|-----------------|-----------------|
A|-5-5-5-5-5-5-5-5-|-5-5-5-5-5-5-5-5-|-5-5-5-5-5-5-5-5-|
E|-----------------|-----------------|-----------------|

Guitar Solo:

   A                 D                 A                 D
G|-----------------|-----------------|-----------------|-----------------|
D|-----------------|-----------------|-----------------|-----------------|
A|-----------------|-5-5-5-5-5-5-5-5-|-----------------|-5-5-5-5-5-5-5-5-|
E|-5-5-5-5-5-5-5-5-|-----------------|-5-5-5-5-5-5-5-5-|-----------------|

   A                 D                 A                 D
G|-----------------|-----------------|-----------------|-----------------|
D|-----------------|-----------------|-----------------|-----------------|
A|-----------------|-5-5-5-5-5-5-5-5-|-----------------|-5-5-5-5-5-5-5-5-|
E|-5-5-5-5-5-5-5-5-|-----------------|-5-5-5-5-5-5-5-5-|-----------------|

   A                 D                 A                 D
G|-----------------|-----------------|-----------------|-----------------|
D|-----------------|-----------------|-----------------|-----------------|
A|---------------3-|-5-5-5-5-5-5-5-5-|---------------3-|-5-5-5-5-5-5-5-5-|
E|-5-5-5-5-5-5-5---|-----------------|-5-5-5-5-5-5-5---|-----------------|

   A                 D                 A                 D
G|-----------------|-----------------|-----------------|-----------------|
D|-----------------|-----------------|-----------------|-----------------|
A|---------------3-|-5-5-5-5-5-5-5-5-|---------------3-|-5-5-5-5-5-5-5-5-|
E|-5-5-5-5-5-5-5---|-----------------|-5-5-5-5-5-5-5---|-----------------|

   D                                              C  D
G|-----------------|-----------------|-----------------|
D|-----------------|-----------------|-----------10-12\|
A|-5-5-5-5-5-5-5-5-|-5-5-5-5-5-5-5-5-|-5-5-5-5-5-------|
E|-----------------|-----------------|-----------------|


Chorus 3:

   A  G      D  C      A  G     D  C       A  G  D  C        A  G D
G|-----------------|-----------------|-----------------|------------------|
D|-----------------|-----------------|-----------------|------------------|
A|---------3-5--3--|----------3-5--3-|-----------5--3--|----------5-5-5-5-|
E|-5--3--5--------0|-3-5--3--5-------|-3-5-5--3-------0|-3-0-5--3---------|

   D                         A  G   D   C   A  G   D  C  A  G  D  C   A  G
G|-----------------|-----------------|-----------------|------------------|
D|-----------------|-----------------|-----------------|------------------|
A|-5-5-5-5-5-5-5-5-|-5-5-5-5-------5-|--3----------5--3|-------5--3-------|
E|-----------------|---------5--3----|------5--3-------|-5--3---------5--3|

   D                                   D                               A
G|-----------------|-----------------|-7-7-7-7-7-7-7-7-|-7-7-7-7-7-7------|
D|-----------------|-----------------|-----------------|-------------7----|
A|-5-5-5-5-5-5-5-5-|-5-5-5-5-5-5-5-5-|-----------------|------------------|
E|-----------------|-----------------|-----------------|---------------5--|

G|-----------------|
D|-----------------|
A|-----------------|
E|---------------5-|
comments
We did not receive enough feedback on this tab! Please rate:
print report bad tab
1 2 3 4 5
4 comments total. Showing first comments.
+1 reply
aig91 wrote on January 5 2008, 12:45 pm

Nice bass tab man :)

+1 reply
feedmegrease wrote on January 5 2008, 06:42 pm

Wow.

0 reply
gringos.korea wrote on June 17 2014, 10:43 pm, edited on June 30 2014, 10:47 pm

Nice

I want to post or [tab]
guest
You may want to rate the tab now too:
select rating
Please do not post tabs as comments. Select "correction" instead!