Oops, an error
Loading. Please wait.

Sin City Bass Tab

version 1
version 1

Whole song

Interactive

8,903 views 45 this week
3 commentsread comments
1 2 3 4 5
accurate
x 7
add to favorites
launch autoscroll
font size
0
reset
guitar tuner
Tab Pro tools
  • play this tab
  • loop segment
  • change instrument
  • show fretboard
  • metronome
×
Best way to learn
"Sin City"
Autoscroll
slow
fast
+/-
esc
set tempo
stop
     INTRO
__________________

Opening/Ending part      (00:06)  x4
G-----------------|    |-------------||-------|  
D-----------------|    |-------------||-------|
A-----2-5--0-2----|then|--------5----||-------|
E-3-5----------0--|    |--0--7-----5-||--0-3--|

		       |______________________|
			      |
			      |--> this part only on intro


!!!The ending part is played slowly!!!


Verse 1 (00:21) x3        	 (00:32)
G---------------------------|    |---------------------|
D----2----------------------|    |---------------------|
A-------2--5----------------|then|---------2-5(x12)----|
E--00---------5--0-3-0------|    |--0-0-------------3--|
  |___|
    |
    +----> those are really close


The verse 1 is repeated trough the whole song, and the bass solo 
is just the verse without the guitar !!! There are two breaks who 
are the same at 1:11 and 3:38:


Break
G------------4-(x32)-------|
D--------------------------|
A--0-(x32)-----------------|
E--------------------------|


and a little difference of the verse at the end of bass solo, when drum enter :

Verse 2 (03:23) x3
G--------------------------|    |--------||
D----2---------------------|    |--------||
A-------2--5---------------|then|--------||
E-------------5------------|    |--0-3-0-||


That's all!
Have Phun!
comments
print report bad tab
3 comments total.
0 reply
BassMaster445 wrote on May 11 2013, 12:38 pm

Great tab I love this song

0 reply
BassMaster445 wrote on May 11 2013, 12:40 pm

Nice tab, I love this song

0 reply
BassMaster445 wrote on May 31 2013, 08:58 am

I think the main riff goes like this though

G---------------------
D-2-------------------
A---2--5--------------
E--------5--5--3--0---

I want to post or [tab]
guest
You may want to rate the tab now too:
select rating
Please do not post tabs as comments. Select "correction" instead!