Oops, an error
Loading. Please wait.

Sin City bass

version 3
version 3

Whole song

Interactive

by AC/DC
8,399 views 15 this week
4 commentsread comments
1 2 3 4 5
x 12
add to favorites
×
Save as Personal and add changes to this tab that will be seen only by you. Learn more ›
×
You can save this tab as Personal to edit and correct it or add notes. All changes will be seen only by you. Learn more »
launch autoscroll
font size
0
reset
guitar tuner
backing track
0:00
0:00
edit
Autoscroll
slow
fast
+/-
esc
set tempo
stop
AC/DC-Sin City
Powerage (1978)
Transcribed by: playinbass1432
Email: playinbass1432@hotmail.com

Standard Tuning

Intro:

   G A B D A B E                                         E     B     D  
G|-----------------|-----------------|-----------------|-----------------|
D|-----------------|-----------------|-----------------|-----------------|
A|-------5---------|-----------------|-----------------|-7-----------5---|
E|-3-5-7---5-7-0---|-----------------|-----------------|-------7---------|

     A               E      B    D       A               E     B     D 
G|-----------------|-----------------|-----------------|-----------------|
D|-----------------|-----------------|-----------------|-----------------|
A|-----------------|-7-----------5---|-----------------|-7-----------5---|
E|---5-------------|-------7---------|---5-------------|-------7---------|

     A               E      B    D       A               E     
G|-----------------|-----------------|-----------------|-----------------|
D|-----------------|-----------------|-----------------|-----------------|
A|-----------------|-7-----------5---|-----------------|-----------------|
E|---5-------------|-------7---------|---5---0-3---0-0-|-0-0-0-0-0-0-0-0-|

   E
G|-----------------|-----------------|-----------------|-----------------|
D|-----------------|-----------------|-----------------|-----------------|
A|-----------------|-----------------|-----------------|-----------------|
E|-0-0-0-0-0-0-0-0-|-0-0-0-0-0-0-0-0-|-0-0-0-0-0-0-0-0-|-0-0-0-0-0-0-0-0-|

   E                             D
G|-----------------|-----------------|-----------------|-----------------|
D|-----------------|-----------------|-----------------|-----------------|
A|-----------------|-------------5---|-5-5-5-5-5-5-5-5-|-5-5-5-5-5-5-5-5-|
E|-0-0-0-0-0-0-0-0-|-0-0-0-0-0-0-----|-----------------|-----------------|

    D                             E
G|-----------------|-----------------|
D|-----------------|-----------------|
A|-5-5-5-5-5-5-5-5-|-5-5-5-5-5-5-----|
E|-----------------|-------------0-0-|

Verse 1:

   E
G|-----------------|-----------------|-----------------|-----------------|
D|-----------------|-----------------|-----------------|-----------------|
A|-----------------|-----------------|-----------------|-----------------|
E|-0-0-0-0-0-0-0-0-|-0-0-0-0-0-0-0-0-|-0-0-0-0-0-0-0-0-|-0-0-0-0-0-0-0-0-|

   E
G|-----------------|-----------------|-----------------|-----------------|
D|-----------------|-----------------|-----------------|-----------------|
A|-----------------|-----------------|-----------------|-----------------|
E|-0-0-0-0-0-0-0-0-|-0-0-0-0-0-0-0-0-|-0-0-0-0-0-0-0-0-|-0-0-0-0-0-0-0-0-|               

   E  
G|-----------------|-----------------|-----------------|-----------------|
D|-----------------|-----------------|-----------------|-----------------|
A|-----------------|-----------------|-----------------|-----------------|
E|-0-0-0-0-0-0-0-0-|-0-0-0-0-0-0-0-0-|-0-0-0-0-0-0-0-0-|-0-0-0-0-0-0-0-0-|

   E
G|-----------------|-----------------|-----------------|-----------------|
D|-----------------|-----------------|-----------------|-----------------|
A|-----------------|-----------------|-----------------|-----------------|
E|-0-0-0-0-0-0-0-0-|-0-0-0-0-0-0-0-0-|-0-0-0-0-0-0-0-0-|-0-0-0-0-0-0-3---|

Pre Chorus 1:

   A
G|-----------------|-----------------|-----------------|-----------------|
D|-----------------|-----------------|-----------------|-----------------|
A|-----------------|-----------------|-----------------|-----------------|
E|-5---5-5-5-5-5-5-|-5-5-5-5-5-5-5-5-|-5-5-5-5-5-5-5-5-|-5-5-5-5-5-5-5-5-|

   B
G|-----------------|-----------------|-----------------|-----------------|
D|-----------------|-----------------|-----------------|-----------------|
A|-----------------|-----------------|-----------------|-------------5-7-|
E|-7---7-7-7-7-7-7-|-7-7-7-5-7-7-7-7-|-7-7-7-7-7-7-7-7-|-7-7-7-7-7-7-----|

Chorus 1:

   E
G|-----------------|-----------------|-----------------|-----------------|
D|-----------------|-----------------|-----------------|-----------------|
A|-----------------|-----------------|-----------------|-----------------|
E|-0-0-0-0-0-0-0-0-|-0-0-0-0-0-0-0-0-|-0-0-0-0-0-0-0-0-|-0-0-0-0-0-0-0-0-|

   E
G|-----------------|-----------------|-----------------|-----------------|
D|-----------------|-----------------|-----------------|-----------------|
A|-----------------|-----------------|-----------------|-----------------|
E|-0-0-0-0-0-0-0-0-|-0-0-0-0-0-0-0-0-|-0-0-0-0-0-0-0-0-|-0-0-0-0-0-0-0-0-|

   E
G|-----------------|-----------------|-----------------|-----------------|
D|-----------------|-----------------|-----------------|-----------------|
A|-----------------|-----------------|-----------------|-----------------|
E|-0-0-0-0-0-0-0-0-|-0-0-0-0-0-0-0-0-|-0-0-0-0-0-0-0-0-|-0-0-0-0-0-0-0-0-|

   E
G|-----------------|-----------------|-----------------|
D|-----------------|-----------------|-----------------|
A|-----------------|-----------------|-----------------|
E|-0-0-0-0-0-0-0-0-|-0-0-0-0-0-0-0-0-|-0-0-0-0-0-0-0-0-|

Guitar Solo:

    D                                  
G|-----------------|-----------------|-----------------|-----------------|
D|-----------------|-----------------|-----------------|-----------------|
A|-5-5-5-5-5-5-5-5-|-5-5-5-5-5-5-5-5-|-5-5-5-5-5-5-5-5-|-5-5-5-5-5-5/17--|
E|-----------------|-----------------|-----------------|-----------------|

   E
G|-----------------|-----------------|-----------------|-----------------|
D|-----------------|-----------------|-----------------|-----------------|
A|-----------------|-----------------|-----------------|-----------------|
E|-0-0-0-0-0-0-0-0-|-0-0-0-0-0-0-0-0-|-0-0-0-0-0-0-0-0-|-0-0-0-0-0-0-0-0-|

   E
G|-----------------|-----------------|-----------------|-----------------|
D|-----------------|-----------------|-----------------|-----------------|
A|-----------------|-----------------|-----------------|-----------------|
E|-0-0-0-0-0-0-0-0-|-0-0-0-0-0-0-0-0-|-0-0-0-0-0-0-0-0-|-0-0-0-0-0-0-0-0-|

   E
G|-----------------|-----------------|-----------------|-----------------|
D|-----------------|-----------------|-----------------|-----------------|
A|-----------------|-----------------|-----------------|-----------------|
E|-0-0-0-0-0-0-0-0-|-0-0-0-0-0-0-0-0-|-0-0-0-0-0-0-0-0-|-0-0-0-0-0-0-0-0-|

   E                                                     D
G|-----------------|-----------------|-----------------|-----------------|
D|-----------------|-----------------|-----------------|-----------------|
A|-----------------|-----------------|-----------------|-5-5-5-5-5-5-5-5-|
E|-0-0-0-0-0-0-0-0-|-0-0-0-0-0-0-0-0-|-0-0-0-0-0-0-0-0-|-----------------|

   D
G|-----------------|-----------------|-----------------|
D|-----------------|-----------------|-----------------|
A|-5-5-5-5-5-5-5-5-|-5-5-5-5-5-5-5-5-|-5-5-5-5-5-5-5-5-|
E|-----------------|-----------------|-----------------|

Verse 2/Bass Solo:

   E      B    D       A     G    E    E      B    D       A      G     
G|-----------------|-----------------|-----------------|-----------------|
D|-----------------|-----------------|-----------------|-----------------|
A|-7-7-7-------5-5-|-5---------------|-7-7-7-------5-5-|-5---------------|
E|-------7-7-7-----|---5-5-5-3b--0---|-------7-7-7-----|---5-5-5-3b--0---|

   E      B    D       A     G    E    E      B    D       A      G     
G|-----------------|-----------------|-----------------|-----------------|
D|-----------------|-----------------|-----------------|-----------------|
A|-7-7-7-------5-5-|-5---------------|-7-7-7-------5-5-|-5---------------|
E|-------7-7-7-----|---5-5-5-3b--0---|-------7-7-7-----|---5-5-5-3b--0---|

   E      B    D       A     G    E    E      B    D       A      G     
G|-----------------|-----------------|-----------------|-----------------|
D|-----------------|-----------------|-----------------|-----------------|
A|-7-7-7-------5-5-|-5---------------|-7-7-7-------5-5-|-5---------------|
E|-------7-7-7-----|---5-5-5-3b--0---|-------7-7-7-----|---5-5-5-3b--0---|

   E      B    D       A     G    E    E      B    D       A      G     
G|-----------------|-----------------|-----------------|-----------------|
D|-----------------|-----------------|-----------------|-----------------|
A|-7-7-7-------5-5-|-5---------------|-7-7-7-------5-5-|-5---------------|
E|-------7-7-7-----|---5-5-5-3b--0---|-------7-7-7-----|---5-5-5-3b--0---|


   E      B    D       A     G    E    E      B    D       A      G     
G|-----------------|-----------------|-----------------|-----------------|
D|-----------------|-----------------|-----------------|-----------------|
A|-7-7-7-------5-5-|-5---------------|-7-7-7-------5-5-|-5---------------|
E|-------7-7-7-----|---5-5-5-3b--0---|-------7-7-7-----|---5-5-5-3b--0---|

   E      B    D       A     G    E    E      B    D       A           
G|-----------------|-----------------|-----------------|-----------------|
D|-----------------|-----------------|-----------------|-----------2-----|
A|-7-7-7-------5-5-|-5---------------|-7-7-7-------5-5-|-5---------------|
E|-------7-7-7-----|---5-5-5-3b--0---|-------7-7-7-----|---5-5-0-3---0-0-|

   E      B    D       A     G    E    E      B    D       A      G     
G|-----------------|-----------------|-----------------|-----------------|
D|-----------------|-----------------|-----------------|-----------------|
A|-7-7-7-------5-5-|-5---------------|-7-7-7-------5-5-|-5---------------|
E|-------7-7-7-----|---5-5-5-3b--0---|-------7-7-7-----|---5-5-5-3b--0---|

   E      B    D       A     G    E    E      B    D       A      G     
G|-----------------|-----------------|-----------------|-----------------|
D|-----------------|-----------------|-----------------|-----------------|
A|-7-7-7-------5-5-|-5---------------|-7-7-7-------5-5-|-5---------------|
E|-------7-7-7-----|---5-5-5-3b--0---|-------7-7-7-----|---5-5-5-3b----5-|

Pre Chorus 2:

   A
G|-----------------|-----------------|-----------------|-----------------|
D|-----------------|-----------------|-----------------|-----------------|
A|-----------------|-----------------|-----------------|-----------------|
E|-5-5-5-5-5-5-5-5-|-5-5-5-5-5-5-5-5-|-5-5-5-5-5-5-5-5-|-5-5-5-5-5-5-5-5-|

   B
G|-----------------|-----------------|-----------------|-----------------|
D|-----------------|-----------------|-----------------|-----------------|
A|-----------------|-----------------|-----------------|-----------------|
E|-7-7-7-7-7-7-7-7-|-7-7-7-7-7-7-7-7-|-7-7-7-7-7-7-7-7-|-7-7-7-7-7-7-7-7-|

Chorus 1:

   E
G|-----------------|-----------------|-----------------|-----------------|
D|-----------------|-----------------|-----------------|-----------------|
A|-----------------|-----------------|-----------------|-----------------|
E|-0-0-0-0-0-0-0-0-|-0-0-0-0-0-0-0-0-|-0-0-0-0-0-0-0-0-|-0-0-0-0-0-0-0-0-|

   E
G|-----------------|-----------------|-----------------|-----------------|
D|-----------------|-----------------|-----------------|-----------------|
A|-----------------|-----------------|-----------------|-----------------|
E|-0-0-0-0-0-0-0-0-|-0-0-0-0-0-0-0-0-|-0-0-0-0-0-0-0-0-|-0-0-0-0-0-0-0-0-|

   E
G|-----------------|-----------------|-----------------|-----------------|
D|-----------------|-----------------|-----------------|-----------------|
A|-----------------|-----------------|-----------------|-----------------|
E|-0-0-0-0-0-0-0-0-|-0-0-0-0-0-0-0-0-|-0-0-0-0-0-0-0-0-|-0-0-0-0-0-0-0-0-|

   E                                                     D
G|-----------------|-----------------|-----------------|-----------------|
D|-----------------|-----------------|-----------------|-----------------|
A|-----------------|-----------------|-----------------|-5-5-5-5-5-5-5-5-|
E|-0-0-0-0-0-0-0-0-|-0-0-0-0-0-0-0-0-|-0-0-0-0-0-0-0-0-|-----------------|

   D
G|-----------------|-----------------|-----------------|
D|-----------------|-----------------|-----------------|
A|-5-5-5-5-5-5-5-5-|-5-5-5-5-5-5-5-5-|-5-5-5-5-5-5-5-5-|
E|-----------------|-----------------|-----------------|

Outro:

   G   A   B   D     A   B   E
G|-----------------|-----------------|-----------------|
D|-----------------|-----------------|-----------------|
A|-------------5---|-----------------|-----------------|
E|-3---5---7-------|-5---7---0-------|-----------------|




            
            
Suggest correction
Creating personal tab
Creating personal tab
You can edit any tab online and save it as your Personal.

You can edit, replace or remove any tab part or add personal notes – all changes will be seen only by you.

Personal tabs can be accessed anytime from any device, even offline.
Learn more »
comments
print report bad tab
4 comments total. Showing first comments.
+1 reply
aig91 4,357 Feb 14, 2008 06:27 AM

Nice job dude! I love how you put the notes over the tab. Very detailed.

-2 reply
simmons100 31 Feb 14, 2008 11:35 AM

alright comment my tabs please

+1 reply
Dback139 306 Jan 24, 2009 01:38 PM

If this guy tabs a song, you know it's correct. Period, end of story. 5 stars.

guest
You may want to rate the tab now too:
select rating
Wanna post a correction for this tab? Suggest correction