Oops, an error
Loading. Please wait.

Sin City Tab

version 3
version 3

Whole song

Interactive

28,878 views 27 this week
6 commentsread comments
1 2 3 4 5
excellent!
x 16
add to favorites
launch autoscroll
font size
0
reset
how to read this tab
guitar tuner
Tab Pro tools
  • play this tab
  • loop segment
  • change instrument
  • show fretboard
  • metronome
×
Best way to learn
"Sin City"
Autoscroll
slow
fast
+/-
esc
set tempo
stop
Contributor
Difficulty
intermediate
INTRO
                            4 Times     then...   Patt.1        (3 Times)
N.C.                       E5 B5 D5 A               E      B  D  A
e -----------------     e -------------.-------- e -----------2----------|
B -----------------     B -------3--2--.-------- B -----------3--2-------|
G -----------------     G ----4--2--2--.-------- G -----1--4--2--2-------|
D -----------------     D -2--4--0--2--.-------- D -----2--4--0--2-------|
A ------2-5-0-2----     A -2--2-----0--.-------- A -----2--2-----0-------|
E --3-5---------0--     E -0-----------.--0--3-- E -0---0-----------0-3--|

                   Patt.2
        E  B (G)
e  ---------------.--2----2---2--2-|---2--2-2---2--------|
B  -----------0---.--3----3---3--3-|---3--3-3---3--------|
G  --------4--0---.--2----2---2--2-|---2--2-2---2--------|
D  -----2--4--0---.--0----0---0--0-|---0--0-0---0--------|
A  -----2--2--0---.----------------|---------------------|
E  -0---0---------.----------------|---------------------|

|-----------------------------|
|-----------------------------|
|--------------2--------------|
|------2---4---0---2----------|
|------2---2-------0---0------|
|---0---------------------3---| repeat
  "Diamonds ........"

PRE CHORUS
|---------------------------------------------------------------------------|
|---------------------------------------------------------------------------|
|----------2-----2--2----2--2--2--2--2-----0--4-----4--4---4--4--4--4--4----|
|----------2-----2--2----2--2--2--2--2-----0--4-----4--4---4--4--4--4--4----|
|----------0-----0--0----0--0--0--0--0-----0--2-----2--2---2--2--2--2--2----|
|---------------------------------------------------------------------------|
 "I gotta Burning . . . . . . .       lit the oven . . . .  .  .

CHORUS
|------------------------------------------------------|
|---------------------3----------------------3---------|
|-----------------4---2---2--------------4---2---2-----|
|-------------2---4---0---2----------2---4---0---2-----| repeat
|-------------2---2-------0----------2---2-------0-----|
|-----0--3----0---------------0--3---0-----------------|
  "im goin in. . . . . . . . To Sin City"

Pre-Solo  (with fig.2 2 Times!)
        p      p     p     p     p       p     p     p
e  -0-12-0-0-10-0-0-9-0-0-7-0-0-5-0-0-0-3-0-0-5-0-0-3-0-0-|
B  -------------------------------------------------------|
G  -------------------------------------------------------|
D  -------------------------------------------------------|
A  -------------------------------------------------------|
E  -------------------------------------------------------|

     p     p     p     p     p     p     p     p     bend~~~~~ b ~~~
e  -5-0-0-3-0-0-5-0-0-3-0-0-5-0-0-3-0-0-5-0-0-3--0-0---------15(17)--|
B  -------------------------------------------------3(5)-------------|
G  ------------------------------------------------------------------|
D  ------------------------------------------------------------------|
A  ------------------------------------------------------------------|
E  ------------------------------------------------------------------|

SOLO            P.O   P.O           B          .               B  B  B  B  B  B  B  R
|(17)~~~~~~~~--15>12----------12----------------------------------------------------------|
|--------------------15>12-------15(17)--~~~~\-0------------------------------------------|
|--------------------------14------------------------2(4)----2(4)(4)(4)(4)(4)(4)(4)^2~~~--|
|-----------------------------------------------------------------------------------------|
|-----------------------------------------------------------------------------------------|
|-----------------------------------------------------------------------------------------|

|-------------------------------------------------------------------------------------------|
|-------------------------------------------------------------------------------------------|
|-0--4-2-0--4-2-0--4-2-0--4-2-0--7-5-0--7-5-0--7-5-0--7-5-0--9-7-0--9-7-0--11-9-0--12-10-0--|
|-------------------------------------------------------------------------------------------|
|-------------------------------------------------------------------------------------------|
|-------------------------------------------------------------------------------------------|
                                             B                    PO      PO       PO
|----------------------------------12---12------12--------------15^12--12-----------------|
|-------------------------------12---15------------15(17)~~~~~~~-----15--15^12--12--------|
|-13-11-0-14-12-0-14\--14~~~~~~-----------14(16)------------------------------14--14^12---|
|--------------------------------------------------------------------------------------14-|
|-----------------------------------------------------------------------------------------|
|-----------------------------------------------------------------------------------------|
                                                                           =pinch harmonics
|-------------------------------------------------------------------------------------------|
|-------------------------------------------------------------------------------------------|
|-14-12-x-14-12-12~~~~--14-12-12~~~~------14-12-12~~~------14-12-12-12~~~~12-<12>12<12><12--|
|---------------------14------------14-14------------14-14----------------------------------|
|-------------------------------------------------------------------------------------------|
|-------------------------------------------------------------------------------------------|
                                    R        B                  B  R
|-----------------------------------------------------17~~~~~-----------------------------|
|------------------------/17--20-(22)^20--20(22)~~~~~~-------20(24^20-17-17~~~~\-0--------|
|-------14--<12>--------------------------------------------------------------------------|
|-14-14---14------------------------------------------------------------------------------|
|-----------------------------------------------------------------------------------------|
|-----------------------------------------------------------------------------------------|
       B       B          B       B        B        B        B        B         B       H R
|------------------------------------------------------------------15(17)~~~~15(17)-12^15^12--|
|------5-------7----------8-------10-------12-------13-------15-------------------------------|
|----7(9)----9(11)----10(12)---12(14)---14(15)---15(17)---17(19)-\----------------------------|
|---------------------------------------------------------------------------------------------|
|---------------------------------------------------------------------------------------------|
|---------------------------------------------------------------------------------------------|
                   B        B
|-----12---12\--17(19~~~~17(20)\----------------------------------------------------------|
|--15----15-------------------------------------------------------------------------------|
|-----------------------------------------------------------------------------------------|
|-----------------------------------------------------------------------------------------|
|-----------------------------------------------------------------------------------------|
|--------------------------------------0--------------------------(12)\(3)/(12)(3)(12)(3)-|

BASSLINE

|----------------------------|
|------2-----0---------------|
|---------2-----0------------|
|---0--------------0-3--0----|

LIVE TID BIT                                               PO
|------------------------------------------------12b-----10-----------------------------|
|----------------------------------------------------12~~--12^10~~~\------------15~~~---|
|--------------------17-17-19-19------------------------------------------------15~~~---|
|---------------------------------------------------------------------------------------|
|---------------------------------------------------------------------------------------|
|---------------------------------------------------------------------------------------|
 "rich man poor man"              "begger man.."                 "aint got..."
comments
print report bad tab
6 comments total. Showing first comments.
0 reply
AC/DC ROCKS!!! wrote on February 27 2007, 12:41 pm

good job with the tab

0 reply
Fender_Tele'71 wrote on May 6 2007, 01:32 pm

ya dude, nice job

0 reply
brad123321 wrote on June 5 2007, 02:01 pm

I dont understand what the brackets mean

I want to post or [tab]
guest
You may want to rate the tab now too:
select rating
Please do not post tabs as comments. Select "correction" instead!