Oops, an error
Loading. Please wait.

Sin City tab

version 3
version 3

Whole song

Interactive

by AC/DC
30,852 views 27 this week
6 commentsread comments
1 2 3 4 5
x 18
add to favorites
×
Save as Personal and add changes to this tab that will be seen only by you. Learn more ›
×
You can save this tab as Personal to edit and correct it or add notes. All changes will be seen only by you. Learn more »
launch autoscroll
font size
0
reset
how to read this tab
guitar tuner
backing track
0:00
0:00
edit
Autoscroll
slow
fast
+/-
esc
set tempo
stop
Author
Difficulty
intermediate
[Intro]          
(4 Times)    then...      
 N.C.                      
e|-----------------|     
B|-----------------|    
G|-----------------|     
D|-----------------|     
A|------2-5-0-2----|     
E|--3-5---------0--|   
  
[Part 1]
(3 Times)
   E5 B5 D5 A               
e|-------------|--------|
B|-------3--2--|--------| 
G|----4--2--2--|--------| 
D|-2--4--0--2--|--------| 
A|-2--2-----0--|--------|
E|-0-----------|--0--3--|

       E      B  D  A
e|-----------2----------|
B|-----------3--2-------|
G|-----1--4--2--2-------|
D|-----2--4--0--2-------|
A|-----2--2-----0-------|
E|-0---0-----------0-3--|

[Part 2]
         E  B (G)
e|---------------|
B|-----------0---|
G|--------4--0---|
D|-----2--4--0---|
A|-----2--2--0---|
E|-0---0---------|

e|--2----2---2--2-|
B|--3----3---3--3-|
G|--2----2---2--2-|
D|--0----0---0--0-|
A|----------------|
E|----------------|

e|---2--2-2---2---|
B|---3--3-3---3---|
G|---2--2-2---2---|
D|---0--0-0---0---|
A|----------------|
E|----------------|

e|-----------------------------|
B|-----------------------------|
G|--------------2--------------|
D|------2---4---0---2----------|
A|------2---2-------0---0------|
E|---0---------------------3---| repeat
  ("Diamonds ........")

[Pre-Chorus]
e|---------------------------------------------------------------------------|
B|---------------------------------------------------------------------------|
G|----------2-----2--2----2--2--2--2--2-----0--4-----4--4---4--4--4--4--4----|
D|----------2-----2--2----2--2--2--2--2-----0--4-----4--4---4--4--4--4--4----|
A|----------0-----0--0----0--0--0--0--0-----0--2-----2--2---2--2--2--2--2----|
E|---------------------------------------------------------------------------|
 ("I gotta Burning . . . . . . .       lit the oven . . . .  .  .)

[Chorus]
e|------------------------------------------------------|
B|---------------------3----------------------3---------|
G|-----------------4---2---2--------------4---2---2-----|
D|-------------2---4---0---2----------2---4---0---2-----| repeat
A|-------------2---2-------0----------2---2-------0-----|
E|-----0--3----0---------------0--3---0-----------------|
 ("im goin in. . . . . . . . To Sin City")

[Pre-solo] 
(with fig.2 2 Times!)
      p      p     p     p     p       p     p     p
e|-0-12-0-0-10-0-0-9-0-0-7-0-0-5-0-0-0-3-0-0-5-0-0-3-0-0-|
B|-------------------------------------------------------|
G|-------------------------------------------------------|
D|-------------------------------------------------------|
A|-------------------------------------------------------|
E|-------------------------------------------------------|

     p     p     p     p     p     p     p     p     bend~~~~~ b ~~~
e|-5-0-0-3-0-0-5-0-0-3-0-0-5-0-0-3-0-0-5-0-0-3--0-0---------15(17)--|
B|-------------------------------------------------3(5)-------------|
G|------------------------------------------------------------------|
D|------------------------------------------------------------------|
A|------------------------------------------------------------------|
E|------------------------------------------------------------------|

[Solo]            
                  P.O   P.O           B          .               B  B  B  B  B  B  B  R
e|(17)~~~~~~~~--15>12----------12----------------------------------------------------------|
B|--------------------15>12-------15(17)--~~~~\-0------------------------------------------|
G|--------------------------14------------------------2(4)----2(4)(4)(4)(4)(4)(4)(4)^2~~~--|
D|-----------------------------------------------------------------------------------------|
A|-----------------------------------------------------------------------------------------|
E|-----------------------------------------------------------------------------------------|

e|-----------------------------------------------------------------------------------------|
B|-----------------------------------------------------------------------------------------|
G|-0--4-2-0--4-2-0--4-2-0--4-2-0--7-5-0--7-5-0--7-5-0--7-5-0--9-7-0--9-7-0--11-9-0--12-10-0|
D|-----------------------------------------------------------------------------------------|
A|-----------------------------------------------------------------------------------------|
E|-----------------------------------------------------------------------------------------|

                                             B                    PO      PO       PO
e|----------------------------------12---12------12--------------15^12--12------------------|
B|-------------------------------12---15------------15(17)~~~~~~~-----15--15^12--12---------|
G|-13-11-0-14-12-0-14\--14~~~~~~-----------14(16)------------------------------14--14^12----|
D|--------------------------------------------------------------------------------------14--|
A|------------------------------------------------------------------------------------------|
E|------------------------------------------------------------------------------------------|

                                                                           =pinch harmonics
e|-----------------------------------------------------------------------------------------|
B|-----------------------------------------------------------------------------------------|
G|-14-12-x-14-12-12~~~~--14-12-12~~~~------14-12-12~~~------14-12-12-12~~~~12-<12>12<12><12|
D|---------------------14------------14-14------------14-14--------------------------------|
A|-----------------------------------------------------------------------------------------|
E|-----------------------------------------------------------------------------------------|

                                    R        B                  B  R
e|-----------------------------------------------------17~~~~~-----------------------------|
B|------------------------/17--20-(22)^20--20(22)~~~~~~-------20(24^20-17-17~~~~\-0--------|
G|-------14--<12>--------------------------------------------------------------------------|
D|-14-14---14------------------------------------------------------------------------------|
A|-----------------------------------------------------------------------------------------|
E|-----------------------------------------------------------------------------------------|

       B       B          B       B        B        B        B        B         B       H R
e|------------------------------------------------------------------15(17)~~~~15(17)-12^15^12--|
B|------5-------7----------8-------10-------12-------13-------15-------------------------------|
G|----7(9)----9(11)----10(12)---12(14)---14(15)---15(17)---17(19)-\----------------------------|
D|---------------------------------------------------------------------------------------------|
A|---------------------------------------------------------------------------------------------|
E|---------------------------------------------------------------------------------------------|

                   B        B
e|-----12---12\--17(19~~~~17(20)\----------------------------------------------------------|
B|--15----15-------------------------------------------------------------------------------|
G|-----------------------------------------------------------------------------------------|
D|-----------------------------------------------------------------------------------------|
A|-----------------------------------------------------------------------------------------|
E|--------------------------------------0--------------------------(12)\(3)/(12)(3)(12)(3)-|

[BASSLINE]
G|----------------------------|
D|------2-----0---------------|
A|---------2-----0------------|
E|---0--------------0-3--0----|

 [LIVE TID BIT]                                               PO
e|------------------------------------------------12b-----10-----------------------------|
B|----------------------------------------------------12~~--12^10~~~\------------15~~~---|
G|--------------------17-17-19-19------------------------------------------------15~~~---|
D|---------------------------------------------------------------------------------------|
A|---------------------------------------------------------------------------------------|
E|---------------------------------------------------------------------------------------|
 ("rich man poor man"              "begger man.."                 "aint got...")

************************************

| .    Staccato
| (n)  Ghost note
| ~    Vibrato
| \    Slide down
| x    Dead note
| /    Slide up
| b    Bend

************************************

            
            
Suggest correction
Creating personal tab
Creating personal tab
You can edit any tab online and save it as your Personal.

You can edit, replace or remove any tab part or add personal notes – all changes will be seen only by you.

Personal tabs can be accessed anytime from any device, even offline.
Learn more »
comments
print report bad tab
6 comments total. Showing first comments.
0 reply
AC/DC ROCKS!!! 10 Feb 27, 2007 07:41 AM

good job with the tab

0 reply
Fender_Tele'71 10 May 06, 2007 09:32 AM

ya dude, nice job

0 reply
brad123321 30 Jun 05, 2007 10:01 AM

I dont understand what the brackets mean

guest
You may want to rate the tab now too:
select rating
Wanna post a correction for this tab? Suggest correction