Oops, an error
Loading. Please wait.

Sink The Pink Tab

version 2
version 2

Whole song

Interactive

30,373 views 48 this week
12 commentsread comments
1 2 3 4 5
x 27
add to favorites
launch autoscroll
font size
0
reset
how to read this tab
guitar tuner
×
Best way to learn
"Sink The Pink"
Autoscroll
slow
fast
+/-
esc
set tempo
stop
Tuning (low to high): EADGBE

[Chords]
C5       x355xx
C        x3201x
Csus4    x3301x
G5       3x0033
G/B      x200xx

[Intro]
(Guitar 1)
(Angus)
                       G5*
E|---------------------3---|
B|---------------------3---|
G|---------------------0---| (guitars 1 and 2
D|---3----3------------0---|  hit the G5)
A|---1-/5-----3----3---x---|
E|------------1-/5-----3---|

(Guitar 1)
E|-7-8-10-10-8-7---------------------------------------------------------|
B|---------------10-10-8-10-6-6-6-6-6-6-8-10-8-8-8-8-8-8-8-8-8-8-8-8-8-8-|
G|-0-0--0--0-0-0--0--0-0--0-0-0-0-0-0-0-0--0-0-0-0-0-0-0-0-0-0-0-0-0-0-0-|
D|-----------------------------------------------------------------------|
A|-----------------------------------------------------------------------|
E|-----------------------------------------------------------------------|

(Guitar 2)
E|-------------------------------------------3---------------------------|
B|-------------------------------------------3---------------------------|
G|-------------------------------------------0---------------------------|
D|-------------------------------------------0---------------------------|
A|-------------------------------------------x---------------------------|
E|-------------------------------------------3---------------------------|

(Guitar 1)
E|-7-8-10-10-8-7-----------------------------|
B|---------------10-10-8-10-6-6-6-6-6-6-8-10-|
G|-0-0--0--0-0-0--0--0-0--0-0-0-0-0-0-0-0--0-|
D|-------------------------------------------|
A|-------------------------------------------|
E|-------------------------------------------|

(Guitar 2)
E|------3------------------------------------|
B|------3------------------------------------|
G|------0------------------------------------|
D|------0------------------------------------|
A|------x------------------------------------|
E|------3------------------------------------|

(Guitar 1)
E|---------------------------------|
B|-8-8-8-8-8-8-8-8-8-8-8-8-8-8-8-8-|
G|-0-0-0-0-0-0-0-0-0-0-0-0-0-0-0-0-|
D|---------------------------------|
A|---------------------------------|
E|---------------------------------|

(Guitar 2)
E|-3-------------------------------|
B|-3-------------------------------|
G|-0-------------------------------|
D|-0-------------------------------|
A|-x-------------------------------|
E|-3-------------------------------|

[Rhythm]
E|---3-3-----------------3-3---|
B|---3-3---1-1---1-1-1---3-3---|
G|---0-0---0-0---0-0-0---0-0---| (x4)
D|---0-0---3-2---2-3-2---0-0---|
A|---x-x---3-3---3-3-3---x-x---|
E|---3-3-----------------3-3---|

[Verse]
         G5   Csus4 C    C Csus4 C Csus4
Put your gear into  fire
         G5      Csus4  C       C Csus4 C Csus4
Lay your bullets on the ground
          G5   Csus4 C       C Csus4 C Csus4
Turn your head to    desire
          G5    Csus4 C     C Csus4 C Csus4
There's a woman goin' down
         C5     C5        G/B C5  C5  G/B    
She says she'll rough you up, all the way
C5   C5  G/B   C5   C5  G/B  C5    C5   G/B   C5
Then she gonna spit you out, count your days

[Pre-chorus]
E|---------------------------------------------|
B|------------3--------------------------------|
G|---5--------2---------------------5----------|
D|---5--------0---------------------5----------|
A|---3--------------------------3-2-3----------|
E|---------------------------------------------|

     She said, "Choice is yours,"     casually

E|-------------------------------------------|
B|-----3-------------------------------------|
G|-----2------------------------------3------|
D|-----0------------------------------3-x8---|
A|-3-2---------------------3----2-----1------|
E|-------------------------------------------|

      "So why don't you do what comes naturally?"

[Chorus]
E|---------------------3-3-----------------3-3---|
B|---------------------3-3---1-1---1-1-1---3-3---|
G|---------------------0-0---0-0---0-0-0---0-0---|
D|---3----3------------0-0---3-2---2-3-2---0-0---|
A|---1-/5---3----3-----x-x---3-3---3-3-3---x-x---|
E|----------1-/5-------3-3-----------------3-3---|

              Sink the pink                It's all the

E|---3-3-----------------|
B|---3-3---1-1---1-1-1---|
D|---0-0---0-0---0-0-0---|
G|---0-0---3-2---2-3-2---|
A|---x-x---3-3---3-3-3---|
E|---3-3-----------------|

     Fashion

[Chorus] 
(continued)
G5                      Csus4 C   C Csus4 C G5
  Drink  the   drink               
G5                      Csus4 C   C Csus4 C G5
  It's old fashioned
G5          Csus4 C  G5    Csus4 C
Gimme water          gimme wine
      G5   Csus4 C         G5 Csus4 C
Gonna show you      a good time
         G5 Csus4 C   C Csus4 C G5         G5 Csus4 C
Sink the pink                     sink the pink

(Guitar 1)
E|---6-3-------------|
B|-------3-6-5-3-----|
G|-----------5-3-----|
D|---------------5---|
A|-------------------|
E|-------------------|

(Guitar 2)
E|---6-3-------------|
B|---6-3-3-6-5-3-----|
G|-------3-7-5-3-----|
D|---------------5---|
A|-------------------|
E|-------------------|


************************************

| x  Dead note
| /  Slide up

************************************
Suggest correction
comments
print report bad tab
12 comments total. Showing first comments. show 1 bad comment
+1 reply
monkey_xxx2003 660 Mar 25, 2005 07:00 PM

great, much better than the lame-o who tabbed #1

+2 reply
Mord_Wraith 341 Aug 23, 2005 08:00 PM

you pick with your fingers!!!

guest
You may want to rate the tab now too:
select rating
Wanna post a correction for this tab? Suggest correction