Oops, an error
Loading. Please wait.

Sink The Pink Tab

version 3
version 3

Whole song

Interactive

4,528 views 12 this week
no commentswrite comment
1 2 3 4 5
excellent!
x 3
add to favorites
launch autoscroll
font size
0
reset
how to read this tab
guitar tuner
Tab Pro tools
  • play this tab
  • loop segment
  • change instrument
  • show fretboard
  • metronome
×
Best way to learn
"Sink The Pink"
Autoscroll
slow
fast
+/-
esc
set tempo
stop
Contributor
Song: Sink The Pink
Artist: AC/DC
Album: Fly On The Wall
Tuning: Standard

Guitar I: Angus Young (lead)
Guitar II: Malcolm Young (rhythm)

/ - slide up
x - muff
h - hammer on
p - pull off

Intro:    Both guitars
|---------------------3---|
|---------------------3---|
|---------------------0---|
|---3----3------------0---|
|---1-/5-----3----3---x---|
|------------1-/5-----3---|

Guitar I
|-7-8-10-10-8-7---------------------------------------------------------|
|-8-8--8--8-8-8-10-10-8-10-6-6-6-6-6-6-8-10-8-8-8-8-8-8-8-8-8-8-8-8-8-8-|
|-0-0--0--0-0-0--0--0-0--0-0-0-0-0-0-0-0--0-0-0-0-0-0-0-0-0-0-0-0-0-0-0-| 2x
|-----------------------------------------------------------------------|
|-----------------------------------------------------------------------|
|-----------------------------------------------------------------------|

Guitar 2
|-------------------------------------------3--------------------------|
|-------------------------------------------3--------------------------|
|-------------------------------------------0--------------------------| 2x
|-------------------------------------------0--------------------------|
|-------------------------------------------x--------------------------|
|-------------------------------------------3--------------------------|

Both Guitars
|---3--3---------------3--3---|
|---3--3-1--1---1-1--1-3--3---|
|---0--0-0--0---0-0--0-0--0---| 4x (Guitar II doesn't play the 1st time)
|---0--0-3--2---2-3--2-0--0---|
|---x--x-3--3---3-3--3-x--x---|
|---3--3---------------3--3---|

Verse: Both Guitars
|---3--3----------------------|
|---3--3-1--1---1-1--1-1------|
|---0--0-0--0---0-0--0-0------| 4x
|---0--0-3--2---2-3--2-3------|
|---x--x-3--3---3-3--3-3------|
|---3--3----------------------|
Put your gear into fire
Lay your bullets on the ground
Turn your head to desire
There's a woman going down

|------------------------------|
|------------------------------|
|---5-5------5--5------5-5-----| 2x
|---5-5-5----5--5-5----5-5-5---|
|---3-3-5----3--3-5----3-3-5---|
|-------3---------3--------3---|
She says she'll rough you up, all the way
Then she gonna spit you out, count your days

|-----------------------|
|--------3--------------|
|--------2----------5---|
|--------0----------5---|
|---------------3-2-3---|
|-----------------------|
She said, "Choice is yours,"     casually.

|------------------------|
|--------3---------------|
|--------2----------3----|
|--------0----------3(8x)|
|----3-2--------3-2-1----|
|------------------------|
"So why don't you do what comes naturally?"

Chorus:  Both guitars
|---------------------3--3---------------3--3---|
|---------------------3--3-1--1---1-1--1-3--3---|
|---------------------0--0-0--0---0-0--0-0--0---|
|---3----3------------0--0-3--2---2-3--2-0--0---|
|---1-/5---3----3-----x--x-3--3---3-3--3-x--x---|
|----------1-/5-------3--3---------------3--3---|
              Sink the pink                It's all the

|---3--3---------------3--3---|
|---3--3-1--1---1-1--1-3--3---|
|---0--0-0--0---0-0--0-0--0---|
|---0--0-3--2---2-3--2-0--0---|
|---x--x-3--3---3-3--3-x--x---|
|---3--3---------------3--3---|
   fashion.                Drink the

|---3--3---------------3--3---|
|---3--3-1--1---1-1--1-3--3---|
|---0--0-0--0---0-0--0-0--0---|
|---0--0-3--2---2-3--2-0--0---|
|---x--x-3--3---3-3--3-x--x---|
|---3--3---------------3--3---|
    drink.                     it's old-

|---3--3---------------3--3---|
|---3--3-1--1---1-1--1-3--3---|
|---0--0-0--0---0-0--0-0--0---|
|---0--0-3--2---2-3--2-0--0---|
|---x--x-3--3---3-3--3-x--x---|
|---3--3---------------3--3---|
    fashioned.               Gimme

|---3--3-----------|
|---3--3-1--1------|
|---0--0-0--0------|
|---0--0-3--2------|
|---x--x-3--3------|
|---3--3-----------|
    water.       Gimme

|---3--3-----------|
|---3--3-1--1------|
|---0--0-0--0------|
|---0--0-3--2------|
|---x--x-3--3------|
|---3--3-----------|
    wine.      Gonna

|---3--3-----------|
|---3--3-1--1------|
|---0--0-0--0------|
|---0--0-3--2------|
|---x--x-3--3------|
|---3--3-----------|
    show you    a

|---3--3-----------|
|---3--3-1--1------|
|---0--0-0--0------|
|---0--0-3--2------|
|---x--x-3--3------|
|---3--3-----------|
    good time.  Sink the

|---3--3---------------3--3---|
|---3--3-1--1---1-1--1-3--3---|
|---0--0-0--0---0-0--0-0--0---|
|---0--0-3--2---2-3--2-0--0---|
|---x--x-3--3---3-3--3-x--x---|
|---3--3---------------3--3---|
    pink.                  Sink the

|---3--3-------|---6-3---------------------|
|---3--3-1--1--|-------3-6-5-3-------------| Guitar I
|---0--0-0--0--|-----------5-3-------------|
|---0--0-3--2--|---------------5-----------|
|---x--x-3--3--|---------------------------|
|---3--3-------| --------------------------|
    pink.
|---3--3-------|---6-3---------------------|
|---3--3-1--1--|---6-3-3-6-5-3-------------| Guitar II
|---0--0-0--0--|-------3-7-5-3-------------|
|---0--0-3--2--|---------------5-----------|
|---x--x-3--3--|---------------------------|
|---3--3-------|---------------------------|

repeat to the verse
here are the lyrics for that :

Got a fever runnin' high
Give you wings to make you fly
She school you like a fool
She make you break the rules
She wanna get a shot, hit the spot
Then I'm gonna rack 'em up, get that hot
She said "make it good, satisfy"
You know that woman got Dallas eyes

repeat chorus

 Presolo:           Guitar I
|-7-8-10-10-8-7---------------------------------------------------------|
|-8-8--8--8-8-8-10-10-8-10-6-6-6-6-6-6-8-10-8-8-8-8-8-8-8-8-8-8-8-8-8-8-|
|-0-0--0--0-0-0--0--0-0--0-0-0-0-0-0-0-0--0-0-0-0-0-0-0-0-0-0-0-0-0-0-0-| 2x
|-----------------------------------------------------------------------|
|-----------------------------------------------------------------------|
|-----------------------------------------------------------------------|

                     Guitar II
|-------------------------------------------3--------------------------|
|-------------------------------------------3--------------------------|
|-------------------------------------------0--------------------------| 2x
|------3------------------------------------0--------------------------|
|------3------------------------------------x--------------------------|
|------1------------------------------------3--------------------------|

Solo:    Guitar II
|-----------------------|------------------------|------------------------|
|--------------------5--|---5--3---------5----5--|-3----------------------|
|--------------------5--|---5--4---------5----5--|-4----------------------|
|-----------------------|------------------------|------------------------|
|-----------------------|------------------------|------------------------|
|-----------------------|------------------------|------------------------|

          Guitar I
|-----------------------|------------------------|------------------------|
|-----------------------|------------------------|---6h8---------6p3------|
|------------------4h5--|-----4-----------4h5----|--------------------5---|
|-----------------------|------------------------|------------------------|
|-----------------------|------------------------|------------------------|
|-----------------------|------------------------|------------------------|

        Guitar I
|-----------------------|------------------------|------------------------|
|-----------------------|------------------------|------------------------|
|---------4------4h5----|---4----5h7p5----3---5--|-------4--------5-------|
|-----------------------|-------------------5----|------------------------|
|-----------------------|------------------------|------------------------|
|-----------------------|------------------------|------------------------|

Guitar I
|--------3h6------------|------------------------|------------------------|
|-----------------------|------------------------|-----6h8--------13h15---|
|---4-----------------5-|-----4---------5--------|--4---------------------|
|-----------------------|------------------------|------------------------|
|-----------------------|------------------------|------------------------|
|-----------------------|------------------------|------------------------|


Guitar I
|-----------------13h15-|---13h15p13p10----------|10------------------------|
|---------13-10---------|--------------13--13h15-|--13p10-------------11h13-|
|--------------12-------|------------------------|-------12h14p12p10--------|
|-----------------------|------------------------|------------------12------|
|-----------------------|------------------------|--------------------------|
|-----------------------|------------------------|--------------------------|


Guitar I
|---------------------------------|
|---------11-10-8-10-8-10-13h15---|
|---------------------------------|
|---------------------------------|
|---------------------------------|
|---------------------------------|

back to chorus

Outro:
Guitar I
|---6-3-------------|---6-3-------------|
|-------3-6-5-3-----|-------3-6-5-3-----|
|-----------5-3-----|-----------5-3-----|
|---------------5---|---------------5---|
|-------------------|-------------------|
|-------------------|-------------------|

Guitar II
|---6-3-------------|---6-3-------------|
|---6-3-3-6-5-3-----|---6-3-3-6-5-3-----|
|-------3-7-5-3-----|-------3-7-5-3-----|
|---------------5---|---------------5---|
|-------------------|-------------------|
|-------------------|-------------------|

Guitar I
|---6---3-----------|---------------------------3----|
|-----------3----6--|----5---------3------------3----|
|-------------------|----5---------3------------0----|
|-------------------|---------------------------0----|
|-------------------|---------------------------x----|
|-------------------|---------------------------3----|

Guitar II
|---6---3-----------|---------------------------3----|
|---6---3---3----6--|----5---------3------------3----|
|-----------3----7--|----5---------3------------0----|
|-------------------|---------------------------0----|
|-------------------|---------------------------x----|
|-------------------|---------------------------3----|

Both Guitars
|---3-----|
|---3-----|
|---0-----|
|---0-----|
|---x-----|
|---3-----|
Sink the Pink!

That's all. Not all the lyrics match up with chords where I put them, but you can catch 
easily. Enjoy!
comments
We did not receive enough feedback on this tab! Please rate:
print report bad tab
1 2 3 4 5
I want to post or [tab]
guest
You may want to rate the tab now too:
select rating
Please do not post tabs as comments. Select "correction" instead!