Oops, an error
Loading. Please wait.

Skies On Fire Bass Tab

version 2
version 2

Whole song

Interactive

781 views 3 this week
1 commentread comment
1 2 3 4 5
please rate
add to favorites
launch autoscroll
font size
0
reset
guitar tuner
Tab Pro tools
  • play this tab
  • loop segment
  • change instrument
  • show fretboard
  • metronome
×
Best way to learn
"Skies On Fire"
Autoscroll
slow
fast
+/-
esc
set tempo
stop
Contributor
----------------------------------------------------------------------------
			     Ac Dc - Skies on Fire
----------------------------------------------------------------------------

Tabbed By : ManChild
e-mail: mattruss1@gmail.com

Tuning:Standard
This is my first ever tab so corrections are welcome... but im pretty sure its right

Intro:
G|--------------------------------------|
D|--------------------------------------|
A|--7-h9-h10-10-7-h9-h10-10-10--5-------|  X4
E|--------------------------------------|

Verse Riff
G|---------------------                              ----5-----7-----|
D|--7--5---------------                              -------7--------|
A|--------8--6--h8-----   X4                         ----------------|
E|---------------------                              ----------------|

G|--7--5---------------                              ----5-----7---------|
D|--------8--6--h8-----                              -------7------------|
A|---------------------  X3                            ------------------| X4
E|---------------------                              --------------------|

Chorus:
G|--------------------------------------|
D|--------------------------------------|
A|--7-h9-h10-10-7-h9-h10-10-10--5-------|  X4
E|--------------------------------------|

PlAY VERSE RIFF THROUGH THE GUITAR SOLO

OUTRO:
G|----------------------------------------|
D|----------------------------------------|
A|--7-h9-h10-10-7-h9-h10-10-10------------|  X3
E|----------------------------------------|


| h  hammer-on

===============================================================================
comments
We did not receive enough feedback on this tab! Please rate:
print report bad tab
1 2 3 4 5
1 comment total.
0 reply
Dback139 wrote on December 8 2009, 05:35 pm

Completely off, see the first version. 100% there.

I want to post or [tab]
guest
You may want to rate the tab now too:
select rating
Please do not post tabs as comments. Select "correction" instead!