Oops, an error
Loading. Please wait.

Skies On Fire Tab

version 2
version 2

Whole song

Interactive

3,404 views 1 this week
1 commentread comment
1 2 3 4 5
please rate
add to favorites
launch autoscroll
font size
0
reset
how to read this tab
guitar tuner
Tab Pro tools
  • play this tab
  • loop segment
  • change instrument
  • show fretboard
  • metronome
Autoscroll
slow
fast
+/-
esc
set tempo
stop
Contributor
Skies on fire by AC/DC

E|-----------------------------------------------------------------------|
B|--------8---------8-8----8---------------------------------------------|
G|--------7---------7-7----7---------------------------------------------|
D|-7-7-7--5---7-7---5-5----5-----7---------------------------------------|x4
A|-5-5-5------5-5----------------5---------------------------------------|
E|-----------------------------------------------------------------------|

E|-------------------|-----------|--------------------|------------------|
B|-------------------|-----------|--------------------|------------------|
G|-------------------|-----------|--------------------|------------------|
D|-7--5--3----3—(x3)-|--5-----7--|--7--5--3----3-(x3)-|--5-----7---------|
A|-7--5--3--5--------|--3--5--5--|--7--5--3--5--------|--3--5--5—(x4)----|
E|-------------------|-----3-----|--------------------|-----3------------|

E|-----------------------------------------------------------------------|
B|--------8---------8-8----8---------------------------------------------|
G|--------7---------7-7----7---------------------------------------------|
D|-7-7-7--5---7-7---5-5----5-----7---------------------------------------|x4
A|-5-5-5------5-5----------------5---------------------------------------|
E|-----------------------------------------------------------------------|

E|-------------------|---------------------------------------------------|
B|-------------------|---------------------------------------------------|
G|-------------------|---------------------------------------------------|
D|-7--5--3----3—(x7)-|--5-----7------------------------------------------|
A|-7--5--3--5--------|--3--5--5-(x4)-------------------------------------|
E|-------------------|-----3---------------------------------------------|

E|-----------------------------------------------------------------------|
B|--------8---------8-8----8---------------------------------------------|
G|--------7---------7-7----7---------------------------------------------|
D|-7-7-7--5---7-7---5-5----5-----7---------------------------------------|x4
A|-5-5-5------5-5----------------5---------------------------------------|
E|-----------------------------------------------------------------------|

E|-------------------|---------------------------------------------------|
B|-------------------|---------------------------------------------------|
G|-------------------|---------------------------------------------------|
D|-7--5--3----3—(x7)-|--5-----7------------------------------------------|
A|-7--5--3--5--------|--3--5--5-(x4)-------------------------------------|
E|-------------------|-----3---------------------------------------------|

E|------------------------------------------------------10-------------10-13--|
B|-13b--13—(13)--------------------------------------10----13-10----10--------|
G|--------------------------10------------------12b--------------12-----------|
D|----------------------------------------------------------------------------|
A|----------------10\--10/------12-10-12----10--------------------------------|
E|----------------------------------------------------------------------------|

E|-----------------------------------------------------------------------|
B|-----13-15-13/15--15-15-13/15----------10------------------------------|
G|-/14---------------------------12b-12b----10----10---------------------|
D|---------------------------------------------12-----12-10--------------|
A|-----------------------------------------------------------------------|
E|-----------------------------------------------------------------------|

E|---------------------------10-13-10----10----13----10----15b-----------|
B|------------------------13---------------------------------------------|
G|-----------------------------------------------------------------------|
D|-----------10-10-10-12\------------------------------------------------|
A|-(10)/--12-------------------------------------------------------------|
E|-----------------------------------------------------------------------|

E|-15b-13b---------17b----17b----17b---20b-20b—20b--22-------------------|
B|---------15------18b----18b----18b-------------------22----------------|
G|-----------------------------------------------------------------------|
D|-----------------------------------------------------------------------|
A|-----------------------------------------------------------------------|
E|------------15\--------------------------------------------------------|

E|--20-------------------------------------------------------------------|
B|-----20-22-18b------------------------13b----(13)----(13)\-------------|
G|----------------19-17-19----(19)-(19)----------------------------------|
D|-----------------------------------------------------------------------|
A|-----------------------------------------------------------------------|
E|-----------------------------------------------------------------------|

E|--20--------------------------------------------------13b-------------------|
B|--------19-20—---20b--20-19-20------------------------------12-(10)--10-----|
G|-----19-------------------------19-19-19----17-19-19------------------------|
D|-----------------------------------------19---------------------------------|
A|----------------------------------------------------------------------------|
E|----------------------------------------------------------------------------|

E|-----------14-15---16-17-16----15b----13b------------------------|
B|--10----15--------------------------------15-13-15----15---------|
G|-----------------------------------------------------------------|
D|-----------------------------------------------------------------|
A|-----------------------------------------------------------------|
E|-----------------------------------------------------------------|

E|--13b-13b-13b-13b-13b----------------14-15--------15-15----15----|
B|----------------------15------15--17--------15-17----------------|
G|-----------------------------------------------------------------|
D|-----------------------------------------------------------------|
A|-----------------------------------------------------------------|
E|-----------------------------------------------------------------|

E|-------14-15--------15-15----15----15---------14-15---------15-15----15----|
B|-15-17--------15-17--------------------15-17----------15-17----------------|
G|---------------------------------------------------------------------------|
D|---------------------------------------------------------------------------|
A|---------------------------------------------------------------------------|
E|---------------------------------------------------------------------------|

E|------------15----------------------------------------------------------|
B|-18b--18-15----18----15----15-18-15-----15------------------------------|
G|------------------------17-----------17---------------------------------|
D|------------------------------------------------------------------------|
A|------------------------------------------------------------------------|
E|------------------------------------------------------------------------|

J0rdy
comments
We did not receive enough feedback on this tab! Please rate:
print report bad tab
1 2 3 4 5
1 comment total.
+1 reply
gunsnrosesrock: wrote on December 30 2008, 01:53 pm

well tabbed and the riff sounds propper angus young style.............
perfecto!!!!

I want to post or [tab]
guest
You may want to rate the tab now too:
select rating
Please do not post tabs as comments. Select "correction" instead!