Oops, an error
Loading. Please wait.

Some Sin For Nuthin tab

version 2
version 2

Whole song

by AC/DC
172 views 1 this week
no commentswrite comment
1 2 3 4 5
3 more votes to show rating
add to favorites
×
Save as Personal and add changes to this tab that will be seen only by you. Learn more ›
×
You can save this tab as Personal to edit and correct it or add notes. All changes will be seen only by you. Learn more »
launch autoscroll
font size
0
reset
how to read this tab
guitar tuner
edit
Autoscroll
slow
fast
+/-
esc
set tempo
stop
Author
Difficulty
-------------------------------------------------------------------------------
                             Some Sin For Nuthin - AC/DC
-------------------------------------------------------------------------------
Tabbed by: jothunder

Tuning: Standard

Disclaimer: This tab does not contain the guitar solo!

-------------------------------------------------------------------------------
    LEAD GUITAR

INTRO

e|-------------------|
B|-------------------|
G|-x-7-x-9-x-12\-9---| Play
D|-x-7-x-9-x-12\-9---|  4x
A|-------------------|
E|-------------------|

e|-----------------------------------------------------------------|
B|-----------------------------------------------------------------|
G|-x-7---9-x-------------------x-7-x-7---9-x-----------------------|
D|-x-7---9-x---5-x---7---------x-7-x-7---9-x---5-x---7-x---9\------|
A|-x-5---7-x---5-x---7---------x-5-x-5---7-x---5-x---7-x---9\------|
E|-------------3-x---5-------------------------3-x---5-x---7\------|

e|-----------------------------------------------------------------|
B|-----------------------------------------------------------------|
G|-x-7---9-x-------------------x-7-x-7---9-x-----------------------|
D|-x-7---9-x---5-x---7---------x-7-x-7---9-x---5-x---7-x---9-------|
A|-x-5---7-x---5-x---7---------x-5-x-5---7-x---5-x---7-x---9-------|
E|-------------3-x---5-------------------------3-x---5-x---7-------|

e|-----------------------------------------------------------------|
B|-----------------------------------------------------------------|
G|-x-7-x-7---9-x-------------------x-7-x-7---9-x-------------------|
D|-x-7-x-7---9-x---5-x---7---------x-7-x-7---9-x---5-x---7-x---9---|
A|-x-5-x-5---7-x---5-x---7---------x-5-x-5---7-x---5-x---7-x---9---|
E|-----------------3-x---5-------------------------3-x---5-x---7---|


VERSE

e|-----------------------------------------------------------------|
B|-----------------------------------------------------------------|
G|-x-7---9-x-------------------x-7-x-7---9-x-----------------------|
D|-x-7---9-x---5-x---7---------x-7-x-7---9-x---5-x---7-x---9-------|
A|-x-5---7-x---5-x---7---------x-5-x-5---7-x---5-x---7-x---9-------|
E|-------------3-x---5-------------------------3-x---5-x---7-------|

e|-----------------------------------------------------------------|
B|-----------------------------------------------------------------|
G|-x-7-x-7---9-x-------------------x-7-x-7---9-x-------------------|
D|-x-7-x-7---9-x---5-x---7---------x-7-x-7---9-x---5-x---7-x---9---|
A|-x-5-x-5---7-x---5-x---7---------x-5-x-5---7-x---5-x---7-x---9---|
E|-----------------3-x---5-------------------------3-x---5-x---7---|

e|-----------------------------------------------------------------|
B|-----------------------------------------------------------------|
G|-x-7-x-7---9-x-------------------x-7-x-7---9-x-------------------|
D|-x-7-x-7---9-x---5-x---7---------x-7-x-7---9-x---5-x---7---------|
A|-x-5-x-5---7-x---5-x---7---------x-5-x-5---7-x---5-x---7---------|
E|-----------------3-x---5-------------------------3-x---5---------|

e|-----------------------------------------------------------------|
B|-----------------------------------------------------------------|
G|-x-7-x-7---9-x-------------------x-7-x-7---9-x-------------------|
D|-x-7-x-7---9-x---5-x---7---------x-7-x-7---9-x---5-x---7-x---9---|
A|-x-5-x-5---7-x---5-x---7---------x-5-x-5---7-x---5-x---7-x---9---|
E|-----------------3-x---5-------------------------3-x---5-x---7---|


REFRAIN

e|---------------------------------------|
B|---------------------------------------|
G|-x-7-x-9-x-12\-9---x-7-x-9-x-12\-9\7---| Play
D|-x-7-x-9-x-12\-9---x-7-x-9-x-12\-9\7---|  4x
A|---------------------------------------|
E|---------------------------------------|

e|-----------------------------------------------------------------|
B|-----------------------------------------------------------------|
G|-x-7---9-x-------------------x-7-x-7---9-x-----------------------|
D|-x-7---9-x---5-x---7---------x-7-x-7---9-x---5-x---7-x---9-------|
A|-x-5---7-x---5-x---7---------x-5-x-5---7-x---5-x---7-x---9-------|
E|-------------3-x---5-------------------------3-x---5-x---7-------|


VERSE

e|-----------------------------------------------------------------|
B|-----------------------------------------------------------------|
G|-x-7---9-x-------------------x-7-x-7---9-x-----------------------|
D|-x-7---9-x---5-x---7---------x-7-x-7---9-x---5-x---7-x---9-------|
A|-x-5---7-x---5-x---7---------x-5-x-5---7-x---5-x---7-x---9-------|
E|-------------3-x---5-------------------------3-x---5-x---7-------|

e|-----------------------------------------------------------------|
B|-----------------------------------------------------------------|
G|-x-7-x-7---9-x-------------------x-7-x-7---9-x-------------------|
D|-x-7-x-7---9-x---5-x---7---------x-7-x-7---9-x---5-x---7-x---9---|
A|-x-5-x-5---7-x---5-x---7---------x-5-x-5---7-x---5-x---7-x---9---|
E|-----------------3-x---5-------------------------3-x---5-x---7---|

e|-----------------------------------------------------------------|
B|-----------------------------------------------------------------|
G|-x-7-x-7---9-x-------------------x-7-x-7---9-x-------------------|
D|-x-7-x-7---9-x---5-x---7---------x-7-x-7---9-x---5-x---7---------|
A|-x-5-x-5---7-x---5-x---7---------x-5-x-5---7-x---5-x---7---------|
E|-----------------3-x---5-------------------------3-x---5---------|

e|-----------------------------------------------------------------|
B|-----------------------------------------------------------------|
G|-x-7-x-7---9-x-------------------x-7-x-7---9-x-------------------|
D|-x-7-x-7---9-x---5-x---7---------x-7-x-7---9-x---5-x---7-x---9---|
A|-x-5-x-5---7-x---5-x---7---------x-5-x-5---7-x---5-x---7-x---9---|
E|-----------------3-x---5-------------------------3-x---5-x---7---|


REFRAIN

e|---------------------------------------|
B|---------------------------------------|
G|-x-7-x-9-x-12\-9---x-7-x-9-x-12\-9\7---| Play
D|-x-7-x-9-x-12\-9---x-7-x-9-x-12\-9\7---|  4x
A|---------------------------------------|
E|---------------------------------------|

e|------------------------------|
B|------------------------------|
G|-x-7---9-x--------------------|
D|-x-7---9-x---5-x---7----------|
A|-x-5---7-x---5-x---7----------|
E|-------------3-x---5----------|


INTERLUDE (while Angus plays his solo)

e|-----------------------------------------------------------------|
B|-----------------------------------------------------------------|
G|---------------------------------------------------------5---5-5-| Play
D|-2---2-2---2-2-2-7---7-7-5---5-5-2---2-2---2-2-2-7---7-7-5---5-5-|  2x
A|-2---2-2---2-2-2-7---7-7-5---5-5-2---2-2---2-2-2-7---7-7-3---3-3-|
E|-0---0-0---0-0-0-5---5-5-3---3-3-0---0-0---0-0-0-5---5-5---------|

e|-----------------------------------------------------------------|
B|-----------------------------------------------------------------|
G|-7---9-x-------------------x-7-x-7---9-x-------------------------|
D|-7---9-x---5-x---7---------x-7-x-7---9-x---5-x---7-x---9---------|
A|-5---7-x---5-x---7---------x-5-x-5---7-x---5-x---7-x---9---------|
E|-----------3-x---5-------------------------3-x---5-x---7---------|

e|-----------------------------------------------------------------|
B|-----------------------------------------------------------------|
G|-x-7-x-7---9-x-------------------x-7-x-7---9-x-------------------|
D|-x-7-x-7---9-x---5-x---7---------x-7-x-7---9-x---5-x---7-x---9---|
A|-x-5-x-5---7-x---5-x---7---------x-5-x-5---7-x---5-x---7-x---9---|
E|-----------------3-x---5-------------------------3-x---5-x---7---|

e|---------------------------------------|
B|---------------------------------------|
G|-x-7-x-9-x-12\-9---x-7-x-9-x-12\-9\7---| Play
D|-x-7-x-9-x-12\-9---x-7-x-9-x-12\-9\7---|  2x
A|---------------------------------------|
E|---------------------------------------|


REFRAIN

e|---------------------------------------|
B|---------------------------------------|
G|-x-7-x-9-x-12\-9---x-7-x-9-x-12\-9\7---| Play
D|-x-7-x-9-x-12\-9---x-7-x-9-x-12\-9\7---|  7x
A|---------------------------------------|
E|---------------------------------------|

e|-----------------------------------------------------------------|
B|-----------------------------------------------------------------|
G|-x-7---9-x-------------------x-7-x-7---9-x-----------------------|
D|-x-7---9-x---5-x---7---------x-7-x-7---9-x---5-x---7-x---2-------|
A|-x-5---7-x---5-x---7---------x-5-x-5---7-x---5-x---7-x---2-------|
E|-------------3-x---5-------------------------3-x---5-x---0-------|

e|-----------------|
B|-----------------|
G|-1-x-------------|
D|-2-x-------------|
A|-2-x-------------|
E|-0-x-------------|

-------------------------------------------------------------------------------
    RYTHM GUITAR

INTRO

e|-----------------------------------------------------------------|
B|-x-3---------3-x-------------x-3-x-3---------3-x-----------------|
G|-x-2---------0-x---2---------x-2-x-2---------0-x---2-x---4\------|
D|-x-0---2-x---0-x---2---------x-0-x-0---2-x---0-x---2-x---4\------|
A|-------2-x---------0-------------------2-x---------0-x---2\------|
E|-------0-x-----------------------------0-x-----------------------|

e|-----------------------------------------------------------------|
B|-x-3---------3-x-------------x-3-x-3---------3-x-----------------|
G|-x-2---------0-x---2---------x-2-x-2---------0-x---2-x---4-------|
D|-x-0---2-x---0-x---2---------x-0-x-0---2-x---0-x---2-x---4-------|
A|-------2-x---------0-------------------2-x---------0-x---2-------|
E|-------0-x-----------------------------0-x-----------------------|

e|-----------------------------------------------------------------|
B|-x-3-x-3---------3-x-------------x-3-x-3---------3-x-------------|
G|-x-2-x-2---------0-x---2---------x-2-x-2---------0-x---2-x---4---|
D|-x-0-x-0---2-x---0-x---2---------x-0-x-0---2-x---0-x---2-x---4---|
A|-----------2-x---------0-------------------2-x---------0-x---2---|
E|-----------0-x-----------------------------0-x-------------------|


VERSE

e|-----------------------------------------------------------------|
B|-x-3---------3-x-------------x-3-x-3---------3-x-----------------|
G|-x-2---------0-x---2---------x-2-x-2---------0-x---2-x---4-------|
D|-x-0---2-x---0-x---2---------x-0-x-0---2-x---0-x---2-x---4-------|
A|-------2-x---------0-------------------2-x---------0-x---2-------|
E|-------0-x-----------------------------0-x-----------------------|

e|-----------------------------------------------------------------|
B|-x-3-x-3---------3-x-------------x-3-x-3---------3-x-------------|
G|-x-2-x-2---------0-x---2---------x-2-x-2---------0-x---2-x---4---|
D|-x-0-x-0---2-x---0-x---2---------x-0-x-0---2-x---0-x---2-x---4---|
A|-----------2-x---------0-------------------2-x---------0-x---2---|
E|-----------0-x-----------------------------0-x-------------------|

e|-----------------------------------------------------------------|
B|-x-3-x-3---------3-x-------------x-3-x-3---------3-x-------------|
G|-x-2-x-2---------0-x---2---------x-2-x-2---------0-x---2---------|
D|-x-0-x-0---2-x---0-x---2---------x-0-x-0---2-x---0-x---2---------|
A|-----------2-x---------0-------------------2-x---------0---------|
E|-----------0-x-----------------------------0-x-------------------|

e|-----------------------------------------------------------------|
B|-x-3-x-3---------3-x-------------x-3-x-3---------3-x-------------|
G|-x-2-x-2---------0-x---2---------x-2-x-2---------0-x---2-x---4---|
D|-x-0-x-0---2-x---0-x---2---------x-0-x-0---2-x---0-x---2-x---4---|
A|-----------2-x---------0-------------------2-x---------0-x---2---|
E|-----------0-x-----------------------------0-x-------------------|


REFRAIN

e|---------------------------------|
B|-----------------3---3-3---3-3---|
G|---------------2-2---2-2---2-2-2-| Play
D|-2---2-2---2-2-2-0---0-0---0-0-2-|  2x
A|-2---2-2---2-2-0---------------0-|
E|-0---0-0---0-0-------------------|

e|---------------------------------|
B|-----------------3---3-3---3-3-3-|
G|---------------2-2---2-2---2-2-2-|
D|-2---2-2---2-2-2-0---0-0---0-0-0-|
A|-2---2-2---2-2-0-----------------|
E|-0---0-0---0-0-------------------|

e|---------------------------------|
B|---------------------------------|
G|-5---5-5---5-5-5-4---4-4---4-4-4-|
D|-5---5-5---5-5-5-4---4-4---4-4-4-|
A|-3---3-5---3-3-3-2---2-2---2-2-4-|
E|---------------------------------|

e|-----------------------------------------------------------------|
B|-3---------3-x-------------x-3-x-3---------3-x-------------------|
G|-2---------0-x---2---------x-2-x-2---------0-x---2-x---4---------|
D|-0---2-x---0-x---2---------x-0-x-0---2-x---0-x---2-x---4---------|
A|-----2-x---------0-------------------2-x---------0-x---2---------|
E|-----0-x-----------------------------0-x-------------------------|


VERSE

e|-----------------------------------------------------------------|
B|-x-3---------3-x-------------x-3-x-3---------3-x-----------------|
G|-x-2---------0-x---2---------x-2-x-2---------0-x---2-x---4-------|
D|-x-0---2-x---0-x---2---------x-0-x-0---2-x---0-x---2-x---4-------|
A|-------2-x---------0-------------------2-x---------0-x---2-------|
E|-------0-x-----------------------------0-x-----------------------|

e|-----------------------------------------------------------------|
B|-x-3-x-3---------3-x-------------x-3-x-3---------3-x-------------|
G|-x-2-x-2---------0-x---2---------x-2-x-2---------0-x---2-x---4---|
D|-x-0-x-0---2-x---0-x---2---------x-0-x-0---2-x---0-x---2-x---4---|
A|-----------2-x---------0-------------------2-x---------0-x---2---|
E|-----------0-x-----------------------------0-x-------------------|

e|-----------------------------------------------------------------|
B|-x-3-x-3---------3-x-------------x-3-x-3---------3-x-------------|
G|-x-2-x-2---------0-x---2---------x-2-x-2---------0-x---2---------|
D|-x-0-x-0---2-x---0-x---2---------x-0-x-0---2-x---0-x---2---------|
A|-----------2-x---------0-------------------2-x---------0---------|
E|-----------0-x-----------------------------0-x-------------------|

e|-----------------------------------------------------------------|
B|-x-3-x-3---------3-x-------------x-3-x-3---------3-x-------------|
G|-x-2-x-2---------0-x---2---------x-2-x-2---------0-x---2-x---4---|
D|-x-0-x-0---2-x---0-x---2---------x-0-x-0---2-x---0-x---2-x---4---|
A|-----------2-x---------0-------------------2-x---------0-x---2---|
E|-----------0-x-----------------------------0-x-------------------|


REFRAIN

e|---------------------------------|
B|-----------------3---3-3---3-3---|
G|---------------2-2---2-2---2-2-2-| Play
D|-2---2-2---2-2-2-0---0-0---0-0-2-|  2x
A|-2---2-2---2-2-0---------------0-|
E|-0---0-0---0-0-------------------|

e|---------------------------------|
B|-----------------3---3-3---3-3-3-|
G|---------------2-2---2-2---2-2-2-|
D|-2---2-2---2-2-2-0---0-0---0-0-0-|
A|-2---2-2---2-2-0-----------------|
E|-0---0-0---0-0-------------------|

e|---------------------------------|
B|---------------------------------|
G|-5---5-5---5-5-5-4---4-4---4-4-4-|
D|-5---5-5---5-5-5-4---4-4---4-4-4-|
A|-3---3-5---3-3-3-2---2-2---2-2-4-|
E|---------------------------------|

e|---------------------------------|
B|-3---------3-x-------------------|
G|-2---------0-x---2---------------|
D|-0---2-x---0-x---2---------------|
A|-----2-x---------0---------------|
E|-----0-x-------------------------|


INTERLUDE (while Angus plays his solo)

e|-----------------------------------------------------------------|
B|-----------------------------------------------------------------|
G|-----------------2---2-2-------------------------2---2-2-5---5-5-| Play
D|-2---2-2---2-2-2-2---2-2-5---5-5-2---2-2---2-2-2-2---2-2-5---5-5-|  2x
A|-2---2-2---2-2-2-0---0-0-5---5-5-2---2-2---2-2-2-0---0-0-3---3-3-|
E|-0---0-0---0-0-0---------3---3-3-0---0-0---0-0-0-----------------|

e|-----------------------------------------------------------------|
B|-3---------3-x-------------x-3-x-3---------3-x-------------------|
G|-2---------0-x---2---------x-2-x-2---------0-x---2-x---4---------|
D|-0---2-x---0-x---2---------x-0-x-0---2-x---0-x---2-x---4---------|
A|-----2-x---------0-------------------2-x---------0-x---2---------|
E|-----0-x-----------------------------0-x-------------------------|

e|-----------------------------------------------------------------|
B|-x-3-x-3---------3-x-------------x-3-x-3---------3-x-------------|
G|-x-2-x-2---------0-x---2---------x-2-x-2---------0-x---2-x---4---|
D|-x-0-x-0---2-x---0-x---2---------x-0-x-0---2-x---0-x---2-x---4---|
A|-----------2-x---------0-------------------2-x---------0-x---2---|
E|-----------0-x-----------------------------0-x-------------------|


REFRAIN

e|---------------------------------|
B|-----------------3---3-3---3-3---|
G|---------------2-2---2-2---2-2-2-| Play
D|-2---2-2---2-2-2-0---0-0---0-0-2-|  2x
A|-2---2-2---2-2-0---------------0-|
E|-0---0-0---0-0-------------------|

e|---------------------------------|
B|-----------------3---3-3---3-3-3-|
G|---------------2-2---2-2---2-2-2-|
D|-2---2-2---2-2-2-0---0-0---0-0-0-|
A|-2---2-2---2-2-0-----------------|
E|-0---0-0---0-0-------------------|

e|---------------------------------|
B|---------------------------------|
G|-5---5-5---5-5-5-4---4-4---4-4-4-|
D|-5---5-5---5-5-5-4---4-4---4-4-4-|
A|-3---3-5---3-3-3-2---2-2---2-2-4-|
E|---------------------------------|

e|---------------------------------|
B|-----------------3---3-3---3-3---|
G|---------------2-2---2-2---2-2-2-| Play
D|-2---2-2---2-2-2-0---0-0---0-0-2-|  2x
A|-2---2-2---2-2-0---------------0-|
E|-0---0-0---0-0-------------------|

e|---------------------------------|
B|-----------------3---3-3---3-3-3-|
G|---------------2-2---2-2---2-2-2-|
D|-2---2-2---2-2-2-0---0-0---0-0-0-|
A|-2---2-2---2-2-0-----------------|
E|-0---0-0---0-0-------------------|

e|-----------------------------------------------------------------|
B|-3---------3-x-------------x-3-x-3---------3-x-------------------|
G|-2---------0-x---2---------x-2-x-2---------0-x---2-x-------------|
D|-0---2-x---0-x---2---------x-0-x-0---2-x---0-x---2-x---2---------|
A|-----2-x---------0-------------------2-x---------0-x---2---------|
E|-----0-x-----------------------------0-x---------------0---------|

e|-----------------|
B|-----------------|
G|-1-x-------------|
D|-2-x-------------|
A|-2-x-------------|
E|-0-x-------------|


************************************

| /   slide up
| \   slide down
| h   hammer-on
| p   pull-off
| ~   vibrato
| +   harmonic
| x   Mute note
| b   Bend
| pb  Pre-bend
| br  Bend release
| pbr Pre-bend release
| brb Bend release bend

************************************

            
            
Suggest correction
Creating personal tab
Creating personal tab
You can edit any tab online and save it as your Personal.

You can edit, replace or remove any tab part or add personal notes – all changes will be seen only by you.

Personal tabs can be accessed anytime from any device, even offline.
Learn more »
Give kudos to tab author, rate the tab!
1 2 3 4 5
comments
print report bad tab
guest
You may want to rate the tab now too:
select rating
Wanna post a correction for this tab? Suggest correction