Oops, an error
Loading. Please wait.

Spoilin For A Fight Bass Tab

version 1
version 1

Whole song

Interactive

2,070 views 3 this week
2 commentsread comments
1 2 3 4 5
please rate
add to favorites
launch autoscroll
font size
0
reset
guitar tuner
Tab Pro tools
  • play this tab
  • loop segment
  • change instrument
  • show fretboard
  • metronome
×
Best way to learn
"Spoilin For A Fight"
Autoscroll
slow
fast
+/-
esc
set tempo
stop
Contributor
This is the corrected version. Thanks to playinbass for helping correct the errors. 

Tabbed by: Vinny A.
Album: Black Ice
Song: Spoilin' For A Fight
Artist: AC/DC
Bassist: Cliff Williams

Intro

  Opening 4 bars without bass
G|-----------------|-----------------|-----------------|-----------------|
D|-----------------|-----------------|-----------------|-----------------|
A|-----------------|-----------------|-----------------|-----------------|
E|-----------------|-----------------|-----------------|-----------------|

Verse 1

   B                                                       D C#B A E    
G|-----------------|-----------------|-----------------|-----------------|
D|-----------------|-----------------|-----------------|-----------------|
A|-----------------|-----------------|-----------------|---5-4-----------|
E|-7-7-7-7-7-7-7-7-|-7-7-7-7-7-7-7-7-|-7-7-7-7-7-7-7-7-|-7-----7-5-0-----|

   B                                                       D C#B A E   
G|-----------------|-----------------|-----------------|-----------------|
D|-----------------|-----------------|-----------------|-----------------|
A|-----------------|-----------------|-----------------|---5-4-----------|
E|-7-7-7-7-7-7-7-7-|-7-7-7-7-7-7-7-7-|-7-7-7-7-7-7-7-7-|-7-----7-5-0-----|


   B                                                       D C#B A E  
G|-----------------|-----------------|-----------------|-----------------|
D|-----------------|-----------------|-----------------|-----------------|
A|-----------------|-----------------|-----------------|---5-4-----------|
E|-7-7-7-7-7-7-7-7-|-7-7-7-7-7-7-7-7-|-7-7-7-7-7-7-7-7-|-7-----7-5-0-----|

   B                                                       D C#B A E    
G|-----------------|-----------------|-----------------|-----------------|
D|-----------------|-----------------|-----------------|-----------------|
A|-----------------|-----------------|-----------------|---5-4-----------|
E|-7-7-7-7-7-7-7-7-|-7-7-7-7-7-7-7-7-|-7-7-7-7-7-7-7-7-|-7-----7-5-0-----|

   B                                                       D C#B A E    
G|-----------------|-----------------|-----------------|-----------------|
D|-----------------|-----------------|-----------------|-----------------|
A|-----------------|-----------------|-----------------|---5-4-----------|
E|-7-7-7-7-7-7-7-7-|-7-7-7-7-7-7-7-7-|-7-7-7-7-7-7-7-7-|-7-----7-5-0-----|


Pre-Chorus

   E                                   E
G|-----------------|-----------------|-----------------|-----------------|
D|-----------------|-----------------|-----------------|-----------------|
A|-----------------|-----------------|-7---------------|-----------------|
E|-0---------------|-0---------------|-----------------|-----------------|

Chorus

   B     A B           D C#B A E       B     A B           D C#B A E    
G|-----------------|-----------------|-----------------|-----------------|
D|-----------------|-----------------|-----------------|-----------------|
A|-----------------|---5-4-----------|-----------------|---5-4-----------|
E|-7---7-5-7-7-7-7-|-7-----7-5-0-----|-7---7-5-7-7-7-7-|-7-----7-5-0-----|

   B     A B           D C#B A E       B     A B         B     A B   
G|-----------------|-----------------|-----------------|-----------------|
D|-----------------|-----------------|-----------------|-----------------|
A|-----------------|---5-4-----------|-----------------|-----------------|
E|-7---7-5-7-7-7-7-|-7-----7-5-0-----|-7---7-5-7-7-----|-7---7-5-7-7-----|

   B     A B             E
G|-----------------|-----------------|
D|-----------------|-----------------|
A|-----------------|-----------------|
E|-7---7-5-7-7-----|-----0-0-0-0-0---|

Verse 2

   B                                                       D C#B A E    
G|-----------------|-----------------|-----------------|-----------------|
D|-----------------|-----------------|-----------------|-----------------|
A|-----------------|-----------------|-----------------|---5-4-----------|
E|-7-7-7-7-7-7-7-7-|-7-7-7-7-7-7-7-7-|-7-7-7-7-7-7-7-7-|-7-----7-5-0-----|

   B                                                       D C#B A E    
G|-----------------|-----------------|-----------------|-----------------|
D|-----------------|-----------------|-----------------|-----------------|
A|-----------------|-----------------|-----------------|---5-4-----------|
E|-7-7-7-7-7-7-7-7-|-7-7-7-7-7-7-7-7-|-7-7-7-7-7-7-7-7-|-7-----7-5-0-----|


   B                                                       D C#B A E    
G|-----------------|-----------------|-----------------|-----------------|
D|-----------------|-----------------|-----------------|-----------------|
A|-----------------|-----------------|-----------------|---5-4-----------|
E|-7-7-7-7-7-7-7-7-|-7-7-7-7-7-7-7-7-|-7-7-7-7-7-7-7-7-|-7-----7-5-0-----|

   B                                                       D C#B A E    
G|-----------------|-----------------|-----------------|-----------------|
D|-----------------|-----------------|-----------------|-----------------|
A|-----------------|-----------------|-----------------|---5-4-----------|
E|-7-7-7-7-7-7-7-7-|-7-7-7-7-7-7-7-7-|-7-7-7-7-7-7-7-7-|-7-----7-5-0-----|


Pre-Chorus

   E                                   
G|-----------------|-----------------|-----------------|-----------------|
D|-----------------|-----------------|-----------------|-----------------|
A|-----------------|-----------------|-----------------|-----------------|
E|-0---------------|-0---------------|-0---------------|-----------------|

Chorus

   B     A B           D C#B A E       B     A B           D C#B A E    
G|-----------------|-----------------|-----------------|-----------------|
D|-----------------|-----------------|-----------------|-----------------|
A|-----------------|---5-4-----------|-----------------|---5-4-----------|
E|-7---7-5-7-7-7-7-|-7-----7-5-0-----|-7---7-5-7-7-7-7-|-7-----7-5-0-----|

   B     A B           D C#B A E       B     A B         B     A B   
G|-----------------|-----------------|-----------------|-----------------|
D|-----------------|-----------------|-----------------|-----------------|
A|-----------------|---5-4-----------|-----------------|-----------------|
E|-7---7-5-7-7-7-7-|-7-----7-5-0-----|-7---7-5-7-7-----|-7---7-5-7-7-----|

   B     A B         D      E
G|-----------------|-----------------|
D|-----------------|-----------------|
A|-----------------|-5------7--------|
E|-7---7-5-7-7-----|-----------------|

Solo (let the notes ring a little)

   B     A B               A B               A B         D      E
G|-----------------|-----------------|-----------------|-----------------|
D|-----------------|-----------------|-----------------|-----------------|
A|-----------------|-----------------|-----------------|-5------7--------|
E|-7---7-5-7-7-----|-7---7-5-7-7-----|-7---7-5-7-7-----|-----------------|


   B     A B               A E         B     A B         D       E
G|-----------------|-----------------|-----------------|-----------------|
D|-----------------|-----------------|-----------------|-----------------|
A|-----------------|-----------------|-----------------|-5-------7-------|
E|-7---7-5-7-7-----|-7---7-5-7-7-----|-7---7-5-7-7-----|-----------------|

Bridge

   A       E                           A       B        
G|-----------------|-----------------|-----------------|-----------------|
D|-----------------|-----------------|-----------------|-----------------|
A|-----------------|-----------------|-----------------|-----------------|
E|-5-------0-------|-----------------|-5-------7-------|-----------------|


   A       E                           B     A B         B     A B
G|-----------------|-----------------|-----------------|-----------------|
D|-----------------|-----------------|-----------------|-----------------|
A|-----------------|-----------------|-----------------|-----------------|
E|-5-------0-------|-----------------|-7---7-5-7-7-----|-7---7-5-7-7-----|

   B     A B             E              
G|-----------------|-----------------|
D|-----------------|-----------------|
A|-----------------|-----------------|
E|-7---7-5-7-7-----|-----0-0-0-0-0---|

Big Finish

   B     A B           D C#B A E       B     A B           D C#B A E       
G|-----------------|-----------------|-----------------|-----------------|
D|-----------------|-----------------|-----------------|-----------------|
A|-----------------|---5-4-----------|-----------------|---5-4-----------|
E|-7---7-5-7-7-7-7-|-7-----7-5-0-----|-7---7-5-7-7-7-7-|-7-----7-5-0-----|


   B     A B           D C#B A E       B     A B           D C#B A E    
G|-----------------|-----------------|-----------------|-----------------|
D|-----------------|-----------------|-----------------|-----------------|
A|-----------------|---5-4-----------|-----------------|---5-4-----------|
E|-7---7-5-7-7-7-7-|-7-----7-5-0-----|-7---7-5-7-7-7-7-|-7-----7-5-0-----|


   B     A B           D C#B A E       B     A B           D C#B A E    
G|-----------------|-----------------|-----------------|-----------------|
D|-----------------|-----------------|-----------------|-----------------|
A|-----------------|---5-4-----------|-----------------|---5-4-----------|
E|-7---7-5-7-7-7-7-|-7-----7-5-0-----|-7---7-5-7-7-7-7-|-7-----7-5-0-----|

   B     A B           D C#B A E       B     A B
G|-----------------|-----------------|-----------------|
D|-----------------|-----------------|-----------------|
A|-----------------|---5-4-----------|-----------------|
E|-7---7-5-7-7-7-7-|-7-----7-5-0-----|-7---7-5-7-7-----|
comments
We did not receive enough feedback on this tab! Please rate:
print report bad tab
1 2 3 4 5
2 comments total.
-1 reply
Dback139 wrote on March 21 2009, 01:15 pm

Wanted to point out to anyone playing this that the I figured out the really only imperfection my tab is that the little bass riff should changed from an open E to an E on the A string (7th fret). Soooo, yea still an E, just not an open one.

---5-4-----7
-7-----7-5--

You can now play the song exactly like Cliff. Just grow your hair out first!

0 reply
TaoK wrote on August 8 2010, 01:13 pm

Eh, it's mostly there. I question the merit of saying one can now play the song 'exactly like' Cliff. I mean, 'exactly like' would be an oxymoron would it not? It's like I don't feel like this is a 5 star tab but it is quality. I just prefer the tab to state how many times to play a repeated section of a song unless it is accompanied by lyrics, just like actual sheet music does, and not wastefully and needlessly suck the ink out of my printer. So 4 stars, well deserved.

I want to post or [tab]
guest
You may want to rate the tab now too:
select rating
Please do not post tabs as comments. Select "correction" instead!