Oops, an error
Loading. Please wait.

Squealer Bass Tab

version 2
version 2

Whole song

Interactive

3,930 views 15 this week
2 commentsread comments
1 2 3 4 5
excellent!
x 4
add to favorites
launch autoscroll
font size
0
reset
guitar tuner
Tab Pro tools
  • play this tab
  • loop segment
  • change instrument
  • show fretboard
  • metronome
Autoscroll
slow
fast
+/-
esc
set tempo
stop
Contributor
Difficulty
novice
G-------------------------|   |-------------------------|
D----------------------3h-|   |-------------------------|
A--5-3-5-5---3-5-3-5-5----|15X|----------------------5h-|2X
E----------5--------------|   |--7-5-7-7-0-5-7-5-7-7----|


G-------------------------|   |-------------------------|
D----------------------3h-|   |-------------------------|
A--5-3-5-5---3-5-3-5-5----|6X |----------------------5h-|2X
E----------5--------------|   |--7-5-7-7-0-5-7-5-7-7----|

G-------------------------|   |-------------------------|
D----------------------3h-|   |-------------------------|
A--5-3-5-5---3-5-3-5-5----|6X |----------------------5h-|2X
E----------5--------------|   |--7-5-7-7-0-5-7-5-7-7----|

G-------------------------|   |-------------------------|
D----------------------3h-|   |-------------------------|
A--5-3-5-5---3-5-3-5-5----|6X |----------------------5h-|2X
E----------5--------------|   |--7-5-7-7-0-5-7-5-7-7----|

G-------------------------|   |-------------------------|
D----------------------3h-|   |-------------------------|
A--5-3-5-5---3-5-3-5-5----|2X |----------------------5h-|2X
E----------5--------------|   |--7-5-7-7-0-5-7-5-7-7----|

G-------------------------|   |-------------------------|
D----------------------3h-|   |-------------------------|
A--5-3-5-5---3-5-3-5-5----|2X |----------------------5h-|2X
E----------5--------------|   |--7-5-7-7-0-5-7-5-7-7----|

G-------------------------|   
D----------------------3h-|       
A--5-3-5-5---3-5-3-5-5----|2X then the bass breaks rythum for a measure
E----------5--------------|   then back to this for a measure, on and off
                              again 4 times then stays with this for the 
                              rest of the song!!

   I couldnt tab when the bass breaks away from the rythum, if you can tab
it...feel free to try it! But the rest of this is pretty much on the money!!
comments
print report bad tab
2 comments total.
+2 reply
rham48 wrote on January 21 2009, 07:19 pm

This is an accurate tab, play it with the song. I don't use the "5" on the E string, I use the open A instead (easier). When the bass breaks away and then comes back to (A) 5, 3, 5, 5, Open, 3... I believe the notes are (E string) F, G, then (A string) C slide to D and begin again.

0 reply
alik.norco wrote on May 5 2015, 08:19 am, edited at 09:29 am

For better timbre
Left column: '3h' replace to '8' on A(3) string.
Right column: '0' on E(4) string replace to '2'.

I want to post or [tab]
guest
You may want to rate the tab now too:
select rating
Please do not post tabs as comments. Select "correction" instead!