Oops, an error
Loading. Please wait.

Stick Around Tab

version 3
version 3

Whole song

Interactive

298 views 3 this week
no commentswrite comment
1 2 3 4 5
please rate
add to favorites
launch autoscroll
font size
0
reset
how to read this tab
guitar tuner
Tab Pro tools
  • play this tab
  • loop segment
  • change instrument
  • show fretboard
  • metronome
×
Best way to learn
"Stick Around"
Autoscroll
slow
fast
+/-
esc
set tempo
stop
Contributor
Difficulty
intermediate
AC/DC - Stick Around 


Tuning: Standart
Mail: degot@bk.ru


Main riff
e|------------------------------------------------------------------------|
B|---------33-------------------------------------------------------------|
G|---22----22-------------------------------------------------------------|
D|---22----00-------------------------------------------------------------|
A|---00-------------------------------------------------------------------|
E|------------------------------------------------------------------------|


Pre-chorus
e|------------------------------------------------------------------------|
B|----------------33----3-------------------------------------------------|
G|---22----2------22----2-------------------------------------------------|
D|---22----2------00----0-------------------------------------------------|
A|---00----0---------3^---3^----------------------------------------------|
E|------3^---3^-----------------------------------------------------------|


Chorus
e|------3---------------------------------3-------------------------------|
B|---3--3------------------------------3--0-------------------------------|
G|---2--0----2--0--2---2-0-22-0-2------2--0----2--------------------------|
D|---0--0----2--0--2---2-0-22-0-2------0--0----2--------------------------|
A|------x----0--x--0---0-x-00-x-0---------x----0(let_ring)----------------|
E|------3-------3--------3----3-----------3-------------------------------|
These 3 repeats whole song.



There are 4 solos in the song. While Angus is playing solo Malcolm plays main riff.

p - pull-off
h - hammer-on
\ - slide (e.g. 9\14 slide from 9 to 14)
^ - 1/2 bend
^^ - full bend (e.g. 12^^12 means bend 12 and then return to 12, like 12h14p12)
~ - vibrato

Aslo there are a lot of slides and vibratos anywhere it possible.



Intro solo
e|-----------------------------------------------------------------------------------------|
B|-12^^--12^^12----------15^^15-15^^15-15^^15-15^^15^^15p13~~---15^^-15p13-----------------|
G|-------------14-14~-----------------------------------------------------14---------------|
D|-----------------------------------------------------------------------------------------|
A|-----------------------------------------------------------------------------------------|
E|-----------------------------------------------------------------------------------------|

e|-----------------------------------------------------------------------------------------|
B|-----------------------------------------------------------------------------------------|
G|------14-14--------------12^^-12^^---9\14-13-12------------------------------------------|
D|-9\14------14^14--------------------------------12h14-12h14~~----------------------------|
A|-----------------------------------------------------------------------------------------|
E|-----------------------------------------------------------------------------------------|



Afterchorus solo #1
e|------------------------------12h15p12----------------------15^^15^^-15^^15-15^^15-15^^--|
B|-12^^-12-----15^^15^^15^^~~\----------15p14p12-------------------------------------------|
G|--------14~~----------------------------------14~~---------------------------------------|
D|---------------------------------------------------14^^14~-------------------------------|
A|-----------------------------------------------------------------------------------------|
E|-----------------------------------------------------------------------------------------|

e|-17h19p17------17------------------------------------------------------------------------|
B|---------19p17---20^^20-19p17-19p17-----20-----------------------------------------------|
G|-----------------------------------19h21--21p19~~\---------------------------------------|
D|-----------------------------------------------------------------------------------------|
A|-----------------------------------------------------------------------------------------|
E|-----------------------------------------------------------------------------------------|



Afterchorus solo #2
e|-------------------------------------------------12--------------------------------------|
B|-15^^-15^^15p13h15--------------------------15^^---15-14p12-14p12---12-------------------|
G|------------------14~~--------14-14-11----------------------------14----14-14-12---------|
D|--------------------------9\14--------14~~----------------------------14--------14~\-----|
A|-----------------------------------------------------------------------------------------|
E|-----------------------------------------------------------------------------------------|

e|-------------------------------------15---(hold this while Bon screams)------------------|
B|----------13^^13^^13^^13-------------18^^------------------------------------------------|
G|--------12--------------14-14^^14--------------------------------------------------------|
D|----9\14---------------------------------------------------------------------------------|
A|-----------------------------------------------------------------------------------------|
E|-----------------------------------------------------------------------------------------|

e|----------------------------12-12-------------------------------17h19p17------17---------|
B|-15^^-13h15------13\----15^^------15p12h14p12--------20^^20-20^^---------19p17--20^^20^^-|
G|-----------14-14~----------------------------14~~\---------------------------------------|
D|-----------------------------------------------------------------------------------------|
A|-----------------------------------------------------------------------------------------|
E|-----------------------------------------------------------------------------------------|



Outro solo
e|-----------------------------------------------------------------------------------------|
B|-------------------------------------------------13^-15^p13----15^p13---13---------------|
G|-------------------------12^^12^^------9\14-14-14--------------------14---14~------------|
D|-12^^-14p12-12p10-12p10------------------------------------------------------------------|
A|-----------------------12----------------------------------------------------------------|
E|-----------------------------------------------------------------------------------------|

e|-15^^--12--------------15^^15^^~~--------------------------------------------------------|
B|-15^^----15p12-14p12---------------------------------------------------------------------|
G|--------------------14-------------------------------------------------------------------|
D|------------------------------------------7p5-7p5-7p5-7p5...\14~-----xx\\\---------------|
A|---------------------------------------------------------------------xx\\\---------------|
E|---------------------------------------------------------------------xx\\\-0-------------|
comments
We did not receive enough feedback on this tab! Please rate:
print report bad tab
1 2 3 4 5
I want to post or [tab]
guest
You may want to rate the tab now too:
select rating
Please do not post tabs as comments. Select "correction" instead!