Oops, an error
Loading. Please wait.

Stormy May Day Tab

version 3
version 3

Whole song

Interactive

2,779 views 6 this week
no commentswrite comment
1 2 3 4 5
please rate
add to favorites
launch autoscroll
font size
0
reset
how to read this tab
guitar tuner
Tab Pro tools
  • play this tab
  • loop segment
  • change instrument
  • show fretboard
  • metronome
×
Best way to learn
"Stormy May Day"
Autoscroll
slow
fast
+/-
esc
set tempo
stop
Contributor
Song: Stormy May Day
Band: AC/DC
Tabbed By: J.Dawg
Tuning: Standard

It`s been a little while since I submitted a
guitar tab, but lets see how I do.


Intro:
e|-----3--------1--------1-----3--------1-----3--------1-----3----3----------|
b|---3--------3--------3-----1--------3-----1--------3-----1------3----------|
g|-0--------0--------0-----0--------0-----0--------0-----0-------------0-----|
d|---------------------------------------------------------------------0-----|
a|---------------------------------------------------------------------------|
e|---------------------------------------------------------------------------|





Riff 1:         
e|-------------------------------------------------------------------------|
b|-------------------------------------------------------------------------|
g|---3---3---3---3/5~~-3--0--3\2-0------3\2---3\2---3---3/5~~-3-0-3-3-3-0--|
d|-0-3-0-3-0-3-0-3/5~~-3--0--3\2-0----0-3\2-0-3\2-0-3-0-3/5~~-3-0-3-3-3-0--|
a|-------------------------------------------------------------------------|
e|-------------------------------------------------------------------------|
 \                                                                       /
  \                                                                     /
   |                          X2                                       |
  /                                                                     \
 /                                                                       \
e|-----------------------------------------------------------------------|
b|-----------------------------------------------------------------------|
g|-3---3---3---3/5~~-3-0-3\2-0------3\2---3\2---3---3/5~~-5/3-0-3-3-3-0--|
d|-3-0-3-0-3-0-3/5~~-3-0-3\2-0----0-3\2-0-3\2-0-3-0-3/5~~-5/3-0-3-3-3-0--|
a|-----------------------------------------------------------------------|
e|-----------------------------------------------------------------------|





Chorus 1:            X1
e|-------------------------------------------|
b|-------------------------------------------|
g|-9/10~~-\5~~--3/2-0----9/10~~-\5~~--3/12~~-|
d|-9/10~~-\5~~0-3/2-0----9/10~~-\5~~0-3/12~~-|
a|-------------------------------------------|
e|-------------------------------------------|






Riff 2:         
e|-------------------------------------------------------------------------|
b|-------------------------------------------------------------------------|
g|---3---3---3---3/5~~-3--0--3\2-0------3\2---3\2---3---3/5~~-3-0-3-3-3-0--|
d|-0-3-0-3-0-3-0-3/5~~-3--0--3\2-0----0-3\2-0-3\2-0-3-0-3/5~~-3-0-3-3-3-0--|
a|-------------------------------------------------------------------------|
e|-------------------------------------------------------------------------|
 \                                                                       /
  \                                                                     /
   |                          X1                                       |
  /                                                                     \
 /                                                                       \
e|-----------------------------------------------------------------------|
b|-----------------------------------------------------------------------|
g|-3---3---3---3/5~~-3-0-3\2-0------3\2---3\2---3---3/5~~-5/3-0-3-3-3-0--|
d|-3-0-3-0-3-0-3/5~~-3-0-3\2-0----0-3\2-0-3\2-0-3-0-3/5~~-5/3-0-3-3-3-0--|
a|-----------------------------------------------------------------------|
e|-----------------------------------------------------------------------|






Chorus 2:            X2
e|-------------------------------------------|
b|-------------------------------------------|
g|-9/10~~-\5~~--3/2-0----9/10~~-\5~~--3/12~~-|
d|-9/10~~-\5~~0-3/2-0----9/10~~-\5~~0-3/12~~-|
a|-------------------------------------------|
e|-------------------------------------------|






Riff 3:         
e|-------------------------------------------------------------------------|
b|-------------------------------------------------------------------------|
g|---3---3---3---3/5~~-3--0--3\2-0------3\2---3\2---3---3/5~~-3-0-3-3-3-0--|
d|-0-3-0-3-0-3-0-3/5~~-3--0--3\2-0----0-3\2-0-3\2-0-3-0-3/5~~-3-0-3-3-3-0--|
a|-------------------------------------------------------------------------|
e|-------------------------------------------------------------------------|
 \                                                                       /
  \                                                                     /
   |                          X2                                       |
  /                                                                     \
 /                                                                       \
e|-----------------------------------------------------------------------|
b|-----------------------------------------------------------------------|
g|-3---3---3---3/5~~-3-0-3\2-0------3\2---3\2---3---3/5~~-5/3-0-3-3-3-0--|
d|-3-0-3-0-3-0-3/5~~-3-0-3\2-0----0-3\2-0-3\2-0-3-0-3/5~~-5/3-0-3-3-3-0--|
a|-----------------------------------------------------------------------|
e|-----------------------------------------------------------------------|






Chorus 3:            X1
e|------------------------------------------------|
b|------------------------------------------------|
g|-9/10~~-\5~~--3/2-0----9/10~~-\5~~--3/12~~~~~~\-|
d|-9/10~~-\5~~0-3/2-0----9/10~~-\5~~0-3/12~~~~~~\-|
a|------------------------------------------------|
e|------------------------------------------------|






Outro:     X1
e|-------------------------------------------------|
b|-------------------------------------------------|
g|-9/10~~\5~~--3\2-0----9/10~~\5~~--3/2p0-3\2/12~~\|
d|-9/10~~\5~~--3\2-0----9/10~~\5~~--3/2p0-3\2/12~~\|
a|-------------------------------------------------|
e|-------------------------------------------------|





e|-------------------------------------------------------------|
b|-------------------------------------------------------------|
g|-9/10~~\5~~--3\2p0-3/12~~\--9/10~~\5~~--3\2p0-3\2p0-12~~~~~~-|
d|-9/10~~\5~~--3\2p0-3/12~~\--9/10~~\5~~--3\2p0-3\2p0-12~~~~~~-|
a|-------------------------------------------------------------|
e|-------------------------------------------------------------|



That should be it! Sounds pretty close, have fun! :)

|-----------------|
|  Guitar Key:    |
|                 |
|  \= Slide Down  |
|  /= Slide Up    |
|  p= Pull Off    |
|  ~= Vibrato     |
|-----------------|
comments
We did not receive enough feedback on this tab! Please rate:
print report bad tab
1 2 3 4 5
I want to post or [tab]
guest
You may want to rate the tab now too:
select rating
Please do not post tabs as comments. Select "correction" instead!