Oops, an error
Loading. Please wait.

Thats The Way I Wanna Rock N Roll Bass Tab

version 1
version 1

Whole song

Interactive

1,568 views 1 this week
1 commentread comment
1 2 3 4 5
please rate
add to favorites
launch autoscroll
font size
0
reset
guitar tuner
Tab Pro tools
  • play this tab
  • loop segment
  • change instrument
  • show fretboard
  • metronome
×
Best way to learn
"Thats The Way I Wanna Rock N Roll"
Autoscroll
slow
fast
+/-
esc
set tempo
stop
Contributor
Simple and fun song to play! If you have any corrections please post them! 

Intro(Bass joins at 13 seconds)
G|---------------------------------------------------------------------------|
D|---------------------------------------------------------------------------|
A|0-0-4-5-7-0--0-0-4-5-6-7-0------0-0-4-5-7-0--0-0-4-5-6-7-0-------0-3-5-----|
E|---------------------------------------------------------------------------|
Verse 1
G|-----------------------------------------------------------------|
D|-----------------------------------------------------------------|
A|-0-0-4-5-7-0--0-0-4-5-6-7-0--------------------------------------|
E|-----------------------------------------------------------------|
                              "Party gonna happen at the union hall"
G|--------------------------------------------------------------------|
D|--------------------------------------------------------------------|
A|-0-0-4-5-7-0--0-0-4-5-6-7-0-----------------------------------------|
E|--------------------------------------------------------------------|
                              "Shaking to the rhythm 'til everybody fall" 
G|--------------------------------------------------------------------|
D|--------------------------------------------------------------------|
A|-0-0-4-5-7-0--0-0-4-5-6-7-0-----------------------------------------|
E|--------------------------------------------------------------------|
                                 "Picking up my woman in my Chevrolet"     
G|---------------------------------------------------------------------|
D|---------------------------------------------------------------------|
A|-0-0-4-5-7-0--0-0-4-5-6-7-0--------------------------------0-3-5-----|
E|---------------------------------------------------------------------|
                              Glory hallelujah gonna rock the night away 

Chorus


G|------------------------------------------------------|
D|------------------------------------------------------|
A|------------------------------------------------------|
E|5-5-5-5-5-5-5-5-5-5-5-5-3-3-3-3-3-3-3-3-3-3-3-3-3-3-3-|
 "ROLL! ROLL ROLL!"       "IM GUNNA ROLL ROLL ROLL!   


G|--------------------------------------------------------------------------|
D|--------------------------------------------------------------------------|
A|--------------------------------------------------------------------------|
E|2-2-2-2-2-2-2-2-2-2-2-2-2-2-2-2-2-2-2-2-2-2--3-3-3-3-3-3-3-3-3-3-3-3-3---|
  "I'm gonna take this town, turn it around"   "Im gunna ROLL ROLL ROLL!"

Verse 2 is same as verse 1.
Lyrics
Now there's a blue suede bopping on a high heeled shoe 
Balling round together like a wrecking crew 
Oh be bopper lubba baby what I say 
You gotta get a dose of rock and roll on each and every day 

Post Chorus 2
G|------------------------------------------------------|
D|------------------------------------------------------|
A|5-5-5-5-5-5-5-5-5-5-8---5--5-5-5-5-5-5-5-5-5-5-8---5--|
E|------------------------------------------------------|
  "Im gunna blow my video."  "Shut down my radio" etc.

Solo play normal riff. At 2:06 change then go back down. 

G|---------------------------|
D|0-0-4-5-7-0--0-0-4-5-6-7-0-|
A|---------------------------|
E|---------------------------|

At 2:15 play riff from D to G. 

Then play chorus riff after breakdown. Then post chorus riff. 

comments
We did not receive enough feedback on this tab! Please rate:
print report bad tab
1 2 3 4 5
1 comment total.
0 reply
Conorbroughton wrote on April 19 2013, 04:16 pm

Post Chorus 2
G|------------------------------------------------------|
D|------------------------------------------------------|
A|3-3-3-3-3-5-3-3-3-3-5-5-5-5-5-7-5-5-5-5-7-5-5-5-5-8-8-8|
E|------------------------------------------------------|
Timings out on this'un, but just listen to the record :) Otherwise its perfect!:D

I want to post or [tab]
guest
You may want to rate the tab now too:
select rating
Please do not post tabs as comments. Select "correction" instead!