Oops, an error
Loading. Please wait.

The Jack Bass Tab

version 1
version 1

Whole song

Interactive

25,087 views 90 this week
2 commentsread comments
1 2 3 4 5
excellent!
x 6
add to favorites
launch autoscroll
font size
0
reset
guitar tuner
Tab Pro tools
  • play this tab
  • loop segment
  • change instrument
  • show fretboard
  • metronome
×
Best way to learn
"The Jack"
Autoscroll
slow
fast
+/-
esc
set tempo
stop
Contributor
The jack
High Voltage
AC DC

intro
G|-----------------------------------------------------|
D|-----------------------------------------------------|
A|-----------------------------------------------------|  (x2)
E|-7-77-77-77-7-5-55-55-55-5-7-77-77-77-7-5-55-55-55-5-|

G|---------------------------------------------------------------|
D|---------------------------------------------------------------|
A|---------------------------------------------------------------|
E|-7-77-77-77-7-5-55-55-55-5-0-00-00-00-567-77777777777777777/19-|

vERSE

G|------------------------------------------------------------------|
D|------------------------------------------------------------------|
A|------------------------------------------------------------------|
E|-0-0-0-0-0-0-0-0-0-0-0-0-0-0-0-02-5-5-5-5-5-5-5-5-5-5-5-5-5-5-5-5-|

G|----------------------------------------------------------------------|
D|----------------------------------------------------------------------|
A|----------------------------------------------------------------------|
E|-0-0-0-0-0-0-0-0-0-0-0-0-0-0-0-0-5-5-5-5-5-5-5-5-5-5-5-5-555555555555-|

cHORUS
sHES GOT THE JACK
G|--------------------------------------------------|
D|--------------------------------------------------|
A|--------------------------------------------------|
E|-0-00-00-00-00-00-00-00-00-00-00-00-00-00-00-00-0-|

G|--------------------------------------------------------------------------|
D|--------------------------------------------------------------------------|
A|--------------------------------------------------------------------------|
E|-5-55-55-55-55-55-55-55-50-00-00-00-00-00-00-00-0777777777777555555555555-|

G|--------------------------|
D|--------------------------|
A|--------------------------|
E|-0-00-00-00-00-00-567-7\0-|

Guitar solo

G|--------------------------------------------------|
D|--------------------------------------------------|
A|--------------------------------------------------|
E|-0-00-00-00-00-00-00-00-00-00-00-00-00-00-00-00-0-|

G|--------------------------------------------------------------------------|
D|--------------------------------------------------------------------------|
A|--------------------------------------------------------------------------|
E|-5-55-55-55-55-55-55-55-50-00-00-00-00-00-00-00-0777777777777555555555555-|

G|-----------------------|
D|-----------------------|
A|-----------------------|
E|-0-00-00-00-00-00-567--|

Verse

G|------------------------------------------------------------------|
D|------------------------------------------------------------------|
A|------------------------------------------------------------------|
E|-0-0-0-0-0-0-0-0-0-0-0-0-0-0-0-0-5-5-5-5-5-5-5-5-5-5-5-5-5-5-5-5\-|

G|----------------------------------------------------------------------|
D|----------------------------------------------------------------------|
A|----------------------------------------------------------------------|
E|-0-0-0-0-0-0-0-0-0-0-0-0-0-0-0-0-5-5-5-5-5-5-5-5-5-5-5-5-555555555555-|

Chorus


G|------------------------------------------------|
D|------------------------------------------------|
A|------------------------------------------------|
E|-0-00-00-00-00-00-00-00-00-00-00-00-0-222333444-|

G|--------------------------------------------------------------------------|
D|--------------------------------------------------------------------------|
A|--------------------------------------------------------------------------|
E|-5-55-55-55-55-55-55-55-50-00-00-00-00-00-00-00-0777777777777555555555555-|

G|-----------------------|
D|-----------------------|
A|-----------------------|
E|-0-00-00-00-00-00-567--|

G|--------------------------------------------------|
D|--------------------------------------------------|
A|--------------------------------------------------|
E|-0-00-00-00-00-00-00-00-00-00-00-00-00-00-00-00-0-|

G|--------------------------------------------------------------------------|
D|--------------------------------------------------------------------------|
A|--------------------------------------------------------------------------|
E|-5-55-55-55-55-55-55-55-50-00-00-00-00-00-00-00-0777777777777555555555555-|

G|-----------------------|
D|-----------------------|
A|-----------------------|
E|-0-00-00-00-00-00-567--|

G|--------------------------------------------------|
D|--------------------------------------------------|
A|-----------01----------01-------------------------|
E|-0-00-00-00--0-00-00-00--0-00-00-00-000222333444--|


G|----------------------------|
D|----------------------------|
A|----------------------------|
E|-5-55-55-55-235-55-55-55-32-|

G|------------------------------------------------------|
D|------------------------------------------------------|
A|-----------01-----------------------------------------|
E|-0-00-00-00--000222333444-222222222222-555333222000-0-|
comments
print report bad tab
2 comments total.
0 reply
solidskateboard wrote on April 19 2009, 08:40 pm

I think you play the intro first bar once.
Then you go down to the SECOND bar. Skip the (x2)

FIRST BAR
intro
G|-----------------------------------------------------|
D|-----------------------------------------------------|
A|-----------------------------------------------------|
E|-7-77-77-77-7-5-55-55-55-5-7-77-77-77-7-5-55-55-55-5-|
SECOND BAR
G|---------------------------------------------------------------|
D|---------------------------------------------------------------|
A|---------------------------------------------------------------|
E|-7-77-77-77-7-5-55-55-55-5-0-00-00-00-567-77777777777777777/19-|

Unless someone can explain is to me on how to play his intro?

0 reply
Dback139 wrote on August 10 2009, 11:00 pm

This is a well-done tab. I award you 5 stars although the actual composition of the tab could have been cleaner. It's the substance that counts ;)

I want to post or [tab]
guest
You may want to rate the tab now too:
select rating
Please do not post tabs as comments. Select "correction" instead!