Oops, an error
Loading. Please wait.

The Jack Chords

version 1
version 1

Whole song

Interactive

706 views 33 this week
no commentswrite comment
1 2 3 4 5
2 more votes to show rating
add to favorites
launch autoscroll
font size
0
reset
transpose
0
reset
display chords
guitar tuner
Autoscroll
slow
fast
+/-
esc
set tempo
stop
Help us to improve Ultimate-Guitar.com Take our survey!
×
Artist: AC/DC
Song: The Jack
Album: High Voltage


[Intro]
   B                A              B                A              B
e|---------------|---------------|---------------|---------------|---------------|
B|---------------|---------------|---------------|---------------|---------------|
G|---------------|---------------|---------------|---------------|---------------|
D|---------------|---------------|---------------|---------------|---------------|
A|-9--9-11--12---|--7--7-9--10---|-9--9-11--12---|--7--7-9--10---|-9--9-11--12---|
E|-7--7-7---7----|--5--5-5--5----|-7--7-7---7----|--5--5-5--5----|-7--7-7---7----|

    A               E              A  A# B                         B
e|---------------|---------------|---------------|---------------|---------------|
B|---------------|---------------|---------------|---------------|---------------|
G|---------------|---------------|---------------|---------------|---------------|
D|---------------|---------------|--2-3-4--------|---------------|-4-4-4-4-4-4-4/|
A|--7--7-9--10---|--2--2-4--5----|--0-1-2--------|---------------|-2-2-2-2-2-2-2/|
E|--5--5-5--5----|--0--0-0--0----|---------------|---------------|---------------|


[Verse 1]
                        E                                            E
e|---------------------------------------------|---------------------------------------------|
B|---------------------------------------------|---------------------------------------------|
G|---------------------------------------------|---------------------------------------------|
D|---------------------------------------------|---------------------------------------------|
A|----------------------2-----2---4----5-------|---------------------2-----2---4----5--------|
E|----------------------0-----0---0----0-------|---------------------0-----0---0----0--------|
  She  gave  me  the  queen                     She  gave  me  the  king

                         E                                           E
e|---------------------------------------------|---------------------------------------------|
B|---------------------------------------------|---------------------------------------------|
G|---------------------------------------------|---------------------------------------------|
D|---------------------------------------------|---------------------------------------------|
A|-----------------------2----2--4---5---------|---------------------2-----2---4----5--------|
E|-----------------------0----0--0---0---------|---------------------0-----0---0----0--------|
  She was wheelin' and dealin'                  Just  doin'  her  thing

                         A                                            A
e|---------------------------------------------|---------------------------------------------|
B|---------------------------------------------|---------------------------------------------|
G|---------------------------------------------|---------------------------------------------|
D|-----------------------2-----2---4----5------|----------------------2-----2---4----5-------|
A|-----------------------0-----0---0----0------|----------------------0-----0---0----0-------|
E|---------------------------------------------|---------------------------------------------|
  She  was  holdin'  a  pair                    But   I   had   to   try

                         A                                           A
e|---------------------------------------------|---------------------------------------------|
B|---------------------------------------------|---------------------------------------------|
G|---------------------------------------------|---------------------------------------------|
D|-----------------------2-----2---4----5------|---------------------2-----2---4----5--------|
A|-----------------------0-----0---0----0------|---------------------0-----0---0----0--------|
E|---------------------------------------------|---------------------------------------------|
   Her   deuce   was   wild                      But  my  ace  was  high

                         E                                           E
e|---------------------------------------------|---------------------------------------------|
B|---------------------------------------------|---------------------------------------------|
G|---------------------------------------------|---------------------------------------------|
D|---------------------------------------------|---------------------------------------------|
A|-----------------------2----2--4---5---------|---------------------2-----2---4----5--------|
E|-----------------------0----0--0---0---------|---------------------0-----0---0----0--------|
                    But how was I to know     that     she'd     been dealt with before

                        E                                           E
e|---------------------------------------------|---------------------------------------------|
B|---------------------------------------------|---------------------------------------------|
G|---------------------------------------------|---------------------------------------------|
D|---------------------------------------------|---------------------------------------------|
A|----------------------2-----2---4----5-------|--------------------2-----2---4----5---------|
E|----------------------0-----0---0----0-------|--------------------0-----0---0----0---------|
  Said     she'd     never had a full house          But     I     should  have  known


                       A                                            A
e|---------------------------------------------|---------------------------------------------|
B|---------------------------------------------|---------------------------------------------|
G|---------------------------------------------|---------------------------------------------|
D|---------------------2-----2---4----5--------|--------------------2-----2---4----5---------|
A|---------------------0-----0---0----0--------|--------------------0-----0---0----0---------|
E|---------------------------------------------|---------------------------------------------|
    From      the     tattoo on her left leg        And    the   garter  on  her  right

                         A                                              A
e|---------------------------------------------|---------------------------------------------|
B|---------------------------------------------|---------------------------------------------|
G|---------------------------------------------|---------------------------------------------|
D|-----------------------2-----2---4----5------|------------------------2-----2---4----5-----|
A|-----------------------0-----0---0----0------|------------------------0-----0---0----0-----|
E|---------------------------------------------|---------------------------------------------|
    She'd    have    the card to bring me down                   If   she  played  it  right


[Chorus 1]
    E
e|--------------------------------|--------------------------------|--------------------------------|
B|--------------------------------|--------------------------------|--------------------------------|
G|--------------------------------|--------------------------------|--------------------------------|
D|--------------------------------|--------------------------------|--------------------------------|
A|--2--4----4--2----2--4----4--2--|--2--4----4--2----2--4----4--2--|--2--4----4--2----2--4----4--2--|
E|--0--0----0--0----0--0----0--0--|--0--0----0--0----0--0----0--0--|--0--0----0--0----0--0----0--0--|
 She's got the jack,              she's got the jack,              she's got the jack

    E                                           A
e|--------------------------------|--------------------------------|--------------------------------|
B|--------------------------------|--------------------------------|--------------------------------|
G|--------------------------------|--------------------------------|--------------------------------|
D|--------------------------------|--------------2---2--4----4--2--|--2--4----4--2----2--4----4--2--|
A|--2--4----4--2----2--4----4--2--|--2---4---4---0---0--0----0--0--|--0--0----0--0----0--0----0--0--|
E|--0--0----0--0----0--0----0--0--|--0---0---0---------------------|--------------------------------|
 She's got the jack,              she's got the jack,              she's got the jack

    A            E                                                              B
e|--------------------------------|--------------------------------|--------------------------------|
B|--------------------------------|--------------------------------|--------------------------------|
G|--------------------------------|--------------------------------|--------------------------------|
D|---2--4----4--------------------|--------------------------------|------------4-4-4--4-4-4--4-4-4-|
A|---0--0----0---2---2--4---4--2--|--2--4----4--2----2--4----4--2--|--2--4---4--2-2-2--2-2-2--2-2-2-|
E|---------------0---0--0---0--0--|--0--0----0--0----0--0----0--0--|--0--0---0----------------------|
 She's got the jack,              she's got the jack,              she's got the jack, jack, jack,

   B       A                                     E                                 A  A# B
e|--------------------------------|--------------------------------|--------------------------------|
B|--------------------------------|--------------------------------|--------------------------------|
G|--------------------------------|--------------------------------|--------------------------------|
D|-4-4-4---2-2-2---2-2-2---2-2-2--|--2--2--2-----------------------|---------------2--3--4----------|
A|-2-2-2---0-0-0---0-0-0---0-0-0--|--0--0--0-----2---2--4----4--2--|--2--4---4--2--0--1--2----------|
E|--------------------------------|--------------0---0--0----0--0--|--0--0---0--0-------------------|
   jack,   jack,   jack,   jack,  she's got the jack,


[Solo]
    E
e|--------------------------------|--------------------------------|--------------------------------|
B|--------------------------------|--------------------------------|--------------------------------|
G|--------------------------------|--------------------------------|--------------------------------|
D|--------------------------------|--------------------------------|--------------------------------|
A|--2--4----4--2----2--4----4--2--|--2--4----4--2----2--4----4--2--|--2--4----4--2----2--4----4--2--|
E|--0--0----0--0----0--0----0--0--|--0--0----0--0----0--0----0--0--|--0--0----0--0----0--0----0--0--|

    E                                             A
e|--------------------------------|--------------------------------|--------------------------------|
B|--------------------------------|--------------------------------|--------------------------------|
G|--------------------------------|--------------------------------|--------------------------------|
D|--------------------------------|---------------2---2--4---4--2--|--2--4----4--2----2--4----4--2--|
A|--2--4----4--2----2--4----4--2--|--2---4----4---0---0--0---0--0--|--0--0----0--0----0--0----0--0--|
E|--0--0----0--0----0--0----0--0--|--0---0----0--------------------|--------------------------------|

    A          E                                                                B
e|--------------------------------|--------------------------------|--------------------------------|
B|--------------------------------|--------------------------------|--------------------------------|
G|--------------------------------|--------------------------------|--------------------------------|
D|--2--4----4---------------------|--------------------------------|------------4-4-4--4-4-4--4-4-4-|
A|--0--0----0--2----2--4----4--2--|--2--4----4--2----2--4----4--2--|--2--4---4--2-2-2--2-2-2--2-2-2-|
E|-------------0----0--0----0--0--|--0--0----0--0----0--0----0--0--|--0--0---0----------------------|

   B       A                                    E                                     A A# B
e|--------------------------------|--------------------------------|--------------------------------|
B|--------------------------------|--------------------------------|--------------------------------|
G|--------------------------------|--------------------------------|--------------------------------|
D|-4-4-4---2-2-2---2-2-2---2-2-2--|---2--2--2----------------------|------------------2--3--4-------|
A|-2-2-2---0-0-0---0-0-0---0-0-0--|---0--0--0---2--2---2--4---4--2-|--2--4---4--2--2--0--1--2-------|
E|--------------------------------|-------------0--0---0--0---0--0-|--0--0---0--0--0----------------|


[Verse 2]
                        E                                             E
e|---------------------------------------------|---------------------------------------------|
B|---------------------------------------------|---------------------------------------------|
G|---------------------------------------------|---------------------------------------------|
D|---------------------------------------------|---------------------------------------------|
A|----------------------2-----2---4----5-------|----------------------2-----2---4----5-------|
E|----------------------0-----0---0----0-------|----------------------0-----0---0----0-------|
   Poker face was her name                      Poker face was her nature

                         E                                               E
e|---------------------------------------------|---------------------------------------------|
B|---------------------------------------------|---------------------------------------------|
G|---------------------------------------------|---------------------------------------------|
D|---------------------------------------------|---------------------------------------------|
A|-----------------------2----2--4---5---------|-------------------------2-----2---4----5----|
E|-----------------------0----0--0---0---------|-------------------------0-----0---0----0----|
  Poker straight was a game                    If she knew she could get ya

                        A                                             A
e|---------------------------------------------|---------------------------------------------|
B|---------------------------------------------|---------------------------------------------|
G|---------------------------------------------|---------------------------------------------|
D|----------------------2-----2---4----5-------|----------------------2-----2---4----5-------|
A|----------------------0-----0---0----0-------|----------------------0-----0---0----0-------|
E|---------------------------------------------|---------------------------------------------|
   She   played  'em   fast                     And  she  played 'em  hard

                       A                                             A
e|---------------------------------------------|---------------------------------------------|
B|---------------------------------------------|---------------------------------------------|
G|---------------------------------------------|---------------------------------------------|
D|---------------------2-----2---4----5--------|---------------------2-----2---4----5--------|
A|---------------------0-----0---0----0--------|---------------------0-----0---0----0--------|
E|---------------------------------------------|---------------------------------------------|
  She could close her eyes                       And  feel  every  card

                        E                                            E
e|---------------------------------------------|---------------------------------------------|
B|---------------------------------------------|---------------------------------------------|
G|---------------------------------------------|---------------------------------------------|
D|---------------------------------------------|---------------------------------------------|
A|----------------------2----2---4----5--------|---------------------2----2---4----5---------|
E|----------------------0----0---0----0--------|---------------------0----0---0----0---------|
                 But  how  was I  to  know      That     she'd     been shuffled before

                        E                                            E
e|---------------------------------------------|---------------------------------------------|
B|---------------------------------------------|---------------------------------------------|
G|---------------------------------------------|---------------------------------------------|
D|---------------------------------------------|---------------------------------------------|
A|----------------------2------2----4-----5----|---------------------2-----2----4-----5------|
E|----------------------0------0----0-----0----|---------------------0-----0----0-----0------|
       Said   she'd   never had a royal flush               But   I  should  have  known

                        A                                           A
e|---------------------------------------------|---------------------------------------------|
B|---------------------------------------------|---------------------------------------------|
G|---------------------------------------------|---------------------------------------------|
D|---------------------2------2----4-----5-----|--------------------2-----2---4----5---------|
A|---------------------0------0----0-----0-----|--------------------0-----0---0----0---------|
E|---------------------------------------------|---------------------------------------------|
                  That all the cards were comin'            From  the  bottom  of  the  pack

                       A                                            A
e|---------------------------------------------|---------------------------------------------|
B|---------------------------------------------|---------------------------------------------|
G|---------------------------------------------|---------------------------------------------|
D|---------------------2-----2----4-----5------|--------------------2-----2---4----5---------|
A|---------------------0-----0----0-----0------|--------------------0-----0---0----0---------|
E|---------------------------------------------|---------------------------------------------|
   And  if  I'd  known what she was dealin' out                  I'd have dealt it back


[Chorus 2]
    E
e|--------------------------------|--------------------------------|--------------------------------|
B|--------------------------------|--------------------------------|--------------------------------|
G|--------------------------------|--------------------------------|--------------------------------|
D|--------------------------------|--------------------------------|--------------------------------|
A|--2--4----4--2----2--4----4--2--|--2--4----4--2----2--4----4--2--|--2--4----4--2----2--4----4--2--|
E|--0--0----0--0----0--0----0--0--|--0--0----0--0----0--0----0--0--|--0--0----0--0----0--0----0--0--|
 She's got the jack,            she's got the jack,           she's got the jack(who knows what else)
                                                                             

    E                                             A
e|--------------------------------|--------------------------------|--------------------------------|
B|--------------------------------|--------------------------------|--------------------------------|
G|--------------------------------|--------------------------------|--------------------------------|
D|--------------------------------|---------------2---2--4---4--2--|--2--4----4--2----2--4----4--2--|
A|--2--4----4--2----2--4----4--2--|--2---4----4---0---0--0---0--0--|--0--0----0--0----0--0----0--0--|
E|--0--0----0--0----0--0----0--0--|--0---0----0--------------------|--------------------------------|
 She's got the jack, (yeah yeah)  she's got the jack,              she's got the jack

    A             E                                                                B
e|--------------------------------|--------------------------------|--------------------------------|
B|--------------------------------|--------------------------------|--------------------------------|
G|--------------------------------|--------------------------------|--------------------------------|
D|---2---4---4--------------------|--------------------------------|------------4-4-4--4-4-4--4-4-4-|
A|---0---0---0---2---2--4---4--2--|--2--4----4--2----2--4----4--2--|--2--4---4--2-2-2--2-2-2--2-2-2-|
E|---------------0---0--0---0--0--|--0--0----0--0----0--0----0--0--|--0--0---0----------------------|
  She's got the jack,              she's got the jack,              she's got the jack, jack, jack,

   B         A                                    E                                  A A# B
e|--------------------------------|--------------------------------|--------------------------------|
B|--------------------------------|--------------------------------|--------------------------------|
G|--------------------------------|--------------------------------|--------------------------------|
D|--4-4-4----2-2-2--2-2-2--2-2-2--|---2--2--2----------------------|-----------------2--3--4--------|
A|--2-2-2----0-0-0--0-0-0--0-0-0--|---0--0--0-----2---2--4---4--2--|-2--4---4--2--2--0--1--2--------|
E|--------------------------------|---------------0---0--0---0--0--|-0--0---0--0--0-----------------|
   jack,   jack,   jack,   jack,  she's got the jack,


[Chorus 3]
    E
e|--------------------------------|--------------------------------|--------------------------------|
B|--------------------------------|--------------------------------|--------------------------------|
G|--------------------------------|--------------------------------|--------------------------------|
D|--------------------------------|--------------------------------|--------------------------------|
A|--------------------------------|--------------------------------|--------------------------------|
E|--------------0-----------------|--------------0-----------------|-------------0------------------|
 She's got the jack,              she's got the jack,  (Ooh it was a bad deal)  jack        She

                E                                 A
e|--------------------------------|--------------------------------|--------------------------------|
B|--------------------------------|--------------------------------|--------------------------------|
G|--------------------------------|--------------------------------|--------------------------------|
D|--------------------------------|--------------------------------|--------------------------------|
A|--------------------------------|---------------0----------------|---------------0----------------|
E|--------------0-----------------|--------------------------------|--------------------------------|
   gave me the jack,      (eh)     she's got the jack,              she's got the jack

   A             E                                                              B
e|--------------------------------|--------------------------------|--------------------------------|
B|--------------------------------|--------------------------------|--------------------------------|
G|--------------------------------|--------------------------------|--------------------------------|
D|--------------------------------|--------------------------------|------------4-4-4--4-4-4--4-4-4-|
A|--------------------------------|--------------------------------|------------2-2-2--2-2-2--2-2-2-|
E|---------------0----------------|----------------0---------------|--------------------------------|
 She's got the jack,(Can't you tell)she's got the jack,                         jack, jack, jack,

   B         A                                   E                                     A A# B
e|--------------------------------|--------------------------------|--------------------------------|
B|--------------------------------|--------------------------------|--------------------------------|
G|--------------------------------|--------------------------------|--------------------------------|
D|--4-4-4----2-2-2--2-2-2--2-2-2--|--2---2---2---------------------|-------------------2--3--4------|
A|--2-2-2----0-0-0--0-0-0--0-0-0--|--0---0---0---2---2---2---2--2--|---2---2---2---2---0--1--2------|
E|--------------------------------|--------------0---0---0---0--0--|---0---0---0---0----------------|
   jack,   jack,   jack,   jack,  she's got the jack,     she's got the jack


[Chorus 4]
    E
e|--------------------------------|--------------------------------|--------------------------------|
B|--------------------------------|--------------------------------|--------------------------------|
G|--------------------------------|--------------------------------|--------------------------------|
D|--------------------------------|--------------------------------|--------------------------------|
A|--2--4----4--2----2--4----4--2--|--2--4----4--2----2--4----4--2--|--2--4----4--2----2--4----4--2--|
E|--0--0----0--0----0--0----0--0--|--0--0----0--0----0--0----0--0--|--0--0----0--0----0--0----0--0--|
 She's got the jack,              she's got the jack,            she's got thejack,(you never know)

    E                                             A
e|--------------------------------|--------------------------------|--------------------------------|
B|--------------------------------|--------------------------------|--------------------------------|
G|--------------------------------|--------------------------------|--------------------------------|
D|--------------------------------|---------------2---2--4---4--2--|--2--4----4--2----2--4----4--2--|
A|--2--4----4--2----2--4----4--2--|--2---4----4---0---0--0---0--0--|--0--0----0--0----0--0----0--0--|
E|--0--0----0--0----0--0----0--0--|--0---0----0--------------------|--------------------------------|
 She's got the jack,              she's got the jack,              she's got the jack

    A            E                                                                B
e|--------------------------------|--------------------------------|--------------------------------|
B|--------------------------------|--------------------------------|--------------------------------|
G|--------------------------------|--------------------------------|--------------------------------|
D|--2---4---4---------------------|--------------------------------|------------4-4-4--4-4-4--4-4-4-|
A|--0---0---0----2---2--4---4--2--|--2--4----4--2----2--4----4--2--|--2--4---4--2-2-2--2-2-2--2-2-2-|
E|---------------0---0--0---0--0--|--0--0----0--0----0--0----0--0--|--0--0---0----------------------|
 She's got the jack,   (It hurts)  she's got the jack,             she's got the jack, jack, jack,

   B       A                                    E               F     E
e|--------------------------------|--------------------------------|--------------------------------|
B|--------------------------------|--------------------------------|--------------------------------|
G|--------------------------------|--------------------------------|--------------------------------|
D|-4-4-4---2-2-2---2-2-2---2-2-2--|--2--2--2--------------------3--|--2-----------------------------|
A|-2-2-2---0-0-0---0-0-0---0-0-0--|--0--0--0----2---------------3--|--2-----------------------------|
E|--------------------------------|-------------0---------------1--|--0-----------------------------|
   jack,   jack,   jack,   jack,  she's got the jack,   Aaaah           Thank you, thank you, thank

e|--------------------------------|--------------------------------|--------------------------------|
B|--------------------------------|--------------------------------|--------------------------------|
G|--------------------------------|--------------------------------|--------------------------------|
D|--------------------------------|--------------------------------|--------------------------------|
A|--------------------------------|--------------------------------|--------------------------------|
E|--------------------------------|--------------------------------|--------------------------------|
  you people, thank you I'm glad you like the show, thank you folks, Goodnight and God bless
Suggest correction
Give kudos to tab author, rate the tab!
1 2 3 4 5
comments
print report bad tab
guest
You may want to rate the tab now too:
select rating
Wanna post a correction for this tab? Suggest correction