Oops, an error
Loading. Please wait.

The Jack Tab

version 1
version 1

Live

Whole song

Interactive

9,876 views 9 this week
3 commentsread comments
1 2 3 4 5
accurate
x 8
add to favorites
launch autoscroll
font size
0
reset
how to read this tab
guitar tuner
Tab Pro tools
  • play this tab
  • loop segment
  • change instrument
  • show fretboard
  • metronome
×
Best way to learn
"The Jack"
Autoscroll
slow
fast
+/-
esc
set tempo
stop
Contributor
The Jack Live by AC/DC (Scott/Young/Young)
 TNT' (Australia 1975)
 High Voltage (1976 Europe ,Us)
Tab by Voytazz
--------
That is the way that Ac/Dc play it in Live shows
b=bend r=release ~~~=vibrato (finger) tr=trill
p - pull off
Intro:

e|----------|----------|---------|
b|----------|----------|---------|
g|----------|----------|---------|
D|-4-4-6-7--|-2-2-4-5--|---------|
A|-2-2-4-5--|-0-0-0-0--|-2-2-4-5-|
E|----------|----------|-0-0-0-0-|

e|----------|-----------------|
b|----------|-----------------|
g|----------|-------------4---|
D|-2-3-4----|-4-4-4-4-4-4-4/--|
A|-0-1-2----|-2-2-2-2-2-2-2/--|
E|----------|-----------------|

Figures:
  *                #
e|-----------| e|-----------|
b|-----------| b|-----------|     Verse: 4 x *-Pattern
g|-----------| g|-----------|            4 x #-Pattern
D|-----------| D|--2-2-4-5--|            4 x *-Pattern
A|-2-2-4-5---| A|-----------|            4 x #-Pattern
E|-----------| E|-----------|

Chorus(Thats the way that Ang' and Mal' play it on the Live show):

e|-------------------------------|
b|-------------------------------|
g|-------------------------------|
D|-------------------------------|
A|-2---2---4---5---5p4---2-------|x4
E|-0---0---0---0---------0-------|

e|-------------------------------|
b|-------------------------------|
g|-------------------------------|
D|-2---2---4---5---5p4---2-------|x2
A|-0---0---0---0---------0-------|
E|-------------------------------|

e|-------------------------------|
b|-------------------------------|
g|-------------------------------|
D|-------------------------------|
A|-2---2---4---5---5p4---2-------|x2
E|-0---0---0---0---------0-------|


e|-------------------------------|-------------------------------|
b|-------------------------------|-------------------------------|
g|------4-4-4-4-4-4-4-4-4-4-4-4--|-2-2-2-2-2-2-2-2-2-2-2-2-------|
D|------4-4-4-4-4-4-4-4-4-4-4-4--|-2-2-2-2-2-2-2-2-2-2-2-2-------|
A|------2-2-2-2-2-2-2-2-2-2-2-2--|-0-0-0-0-0-0-0-0-0-0-0-0-------|
E|-------------------------------|-------------------------------|

e|-------------------------------|    |-------------------------------|
b|-------------------------------|    |-------------------------------|
g|-------------------------------|    |-------------------------------|
D|-------------------------------|    |-----------------2---3---4-----|
A|-2---2---4---5---5p4---2-------|x2  |-2---2---2---2---0---1---2-----|
E|-0---0---0---0---------0-------|    |-0---0---0---0---0---0---0-----|


Solo: played over verse.
   E
               b                b  r   ~~~~           b       b   b
e|--------------------------------------------------------------------------|
b|----------------------------------------------------------------------12--|
g|--------9--11-(13)----------11-13-11-9---------9--11-13---11-12----13-----|
D|-9--11---------------9--11---------------9--11----------------------------|
A|--------------------------------------------------------------------------|
E|--------------------------------------------------------------------------|
                                           B
      r   b   r            b               bend           b
e|--------------------------------------------------------------------------|
b|------------------------------12---15-------------------------------------|
g|-13--12--13--11-9-\----14-16---------14-16-14-12-14-14-16-14-12----14--12-|
D|----------------------------------------------------------------14----14--|
A|--------------------------------------------------------------------------|
E|--------------------------------------------------------------------------|
    b       b   b   b   b     b                    tr          b      ~~~~~
e|-------------------------------------------------------------------------|
b|-------------------------------3-0-------------------------10-12--8------|
g|-2-4-----2-4-2-4-2-4-2-4---2-0-----2-0-----0------------------------9----|
D|---------------------------------------2-0---0---2-----0-----------------|
A|-------------------------------------------------------------------------|
E|-------------------------------------------------------------------------|
                   b           r        b       r          b     b
e|-------12--------------------------------------------15-17-15-17-15-12-14|
b|-12-15----12--15--17--17---17-15-12-14-15----14--12----------------------|
g|-------------------------------------------------------------------------|
D|-------------------------------------------------------------------------|
A|-------------------------------------------------------------------------|
E|-------------------------------------------------------------------------|
                                        b~~~~                      b
e|15-17-15-14-12----12---------------------------------------------------12|
b|---------------15----15-12----12----------12-------------------------12--|
g|---------------------------14----14-14-16----15-12-14-12----12-14-16-----|
D|---------------------------------------------------------14--------------|
A|-------------------------------------------------------------------------|
E|-------------------------------------------------------------------------|
                           ~~~~~~  ~~~~~   b     b
e|----------------------------------------------------|
b|15-12-------------------------------------15----15--|
g|------15-14-12----14----12\------9\----14-16-14-16--|
D|---------------14----14----\-------\----------------|
A|----------------------------------------------------|
E|----------------------------------------------------|

Then is the playin with the crowd, Angus are kicking extra solos...

Angus' Special Outro
e|---------------------------------------------------|
b|---4------3------2---------------------------------|
g|-3---3--2---2--1--1--0h1-0h1-0h1-0h1-0h1-----------| keep
D|---------------------------------------------------| hammering
A|---------------------------------------------------|
E|---------------------------------------------------|


Check for Voytazz tabs...
comments
print report bad tab
3 comments total.
0 reply
AcdcTXfan wrote on September 10 2007, 10:17 pm

play this:
e|-------------|
b|-------------|
g|-------------|
D|-------------|
A|-9--9-11-12--|
E|-7--7--7--7--|

instead of:
e|----------|
b|----------|
g|----------|
D|-4-4-6-7--|
A|-2-2-4-5--|
E|----------|
it's still right, but your way is a little hard to stretch
the tab is good

0 reply
pinkfloydrock wrote on October 8 2008, 04:58 pm

no dude try this
e|-----------|
b|-----------|
g|-----------|
d|-4-4-6-7---|
a|-----------|
e|-7-7-7-7---|
all three are right this one requires no stretching tho

0 reply
kickassash wrote on June 26 2009, 05:41 pm

to me it sounds like he dose a side up wial he sings "she gave me her mind"

I want to post or [tab]
guest
You may want to rate the tab now too:
select rating
Please do not post tabs as comments. Select "correction" instead!