Oops, an error
Loading. Please wait.

The Jack Live Tab

version 2
version 2

Whole song

Interactive

9,072 views 24 this week
1 commentread comment
1 2 3 4 5
accurate
x 5
add to favorites
launch autoscroll
font size
0
reset
how to read this tab
guitar tuner
Tab Pro tools
  • play this tab
  • loop segment
  • change instrument
  • show fretboard
  • metronome
Autoscroll
slow
fast
+/-
esc
set tempo
stop
Contributor
Difficulty
novice
Intro

"SEE IF THE LITTLE RED HEAD KNOWS THIS ONE?"

E|--------------------------------------------------------------------------------|
B|--------------------------------------------------------------------------------|
G|--------------------------------------------------------------------------------|
D|--------------------------------------------------2-3-4-----4-4-4-4-4-4-4-4-\---|
A|-9--9--11-12-----7--7--9--10-----2--2--4--5-------0-1-2-----2-2-2-2-2-2-2-2-\---|
E|-7--7--7--7------5--5--5--5------0--0--0--0-------------------------------------|

guitar 2
|---------------------------------------------------------------------------------|
|---------------------------------------------------------------------------------|
|-------------------------------------------------------------4-4-4-4-4-4-4-4-4---|
|----------7---------------5---------------2--------2-3-4-----4-4-4-4-4-4-4-4-4---|
|-9--9--11-7------7--7--9--5------2--2--4--2--------0-1-2-----2-2-2-2-2-2-2-2-2---|
|-7--7--7---------5--5--5---------0--0--0--0--------------------------------------|

Riff
     PM.....                      . . . . . .
E------------------|       |--------------------|    
B------------------|       |--------------------|  
G------------------|       |--------------------|  
D------------------|       |----2--2---4--5~~~--|        
A----2----4-5~~~~~-|       |----0---------------|    
E----0--0----------|x4     |--------------------| x4  REPEAT (LAST FEW NOTES DONT MUTE)
   "SHE GAVE ME HER....

CHORUS

E-----------------------------------------|     |------------------------------|       
B-----------------------------------------|     |------------------------------|        
G-----------------------------------------|     |---2---2-----2---2--2-----2---|         
D--2--------2--2-----------2--2-----2--2--|     |---2---2--4--2---2--2--4--2---|          
A--2----4---2--2--4b-r-2---2--2--4--2--2--|     |---0---0--0--0---0--0--0--0---|           
E--0--0-0---0--0-----------0--0--0--0--0--|x2   |------------------------------| x2        
 "SHES GOT THE JACK"  
E-----------------------|     |------------------------------------------------|       
B-----------------------|     |------------------------------------------------|        
G-----------------------|     |---4-4-4-4-4-4-4-4-4-4-4-4-4-----2-2-2-2-2-2-2-2|         
D--2--2-----2--2---2----|     |---4-4-4-4-4-4-4-4-4-4-4-4-4--0--2-2-2-2-2-2-2-2|          
A--2--2-4---2--2---2-4--|     |---2-2-2-2-2-2-2-2-2-2-2-2-2--0--0-0-0-0-0-0-0-0|           
E--0--0-0---0--0---0-0--|x2   |------------------------------------------------|        
                                "JACK, JACK JACK......
E-------------------------------------------|
B-------------------------------------------|
G-------------------------------------------|
D--2--2-----2--2---2-----2--2-----2--3--4---|
A--2--2-4---2--2---2-4---2--2-----0--1--2---|
E--0--0-0---0--0---0-0---0--0---------------|
                               "GONORIAH"
solo
E|---------------------------------------------------------------------------------------------|
B|---------8B~~~~~~--------------------------------9/8\9\8~~~~~~/7-7-9\----/5-5--------12------|
G|-------9----------------9----9----------------9---------------/7-7-9\---------7~~~-----------|
D|--9-11-------------9-11---11---11B~~~---9--11--------------------------/---------------------|
A|---------------------------------------------------------------------------------------------|
E|---------------------------------------------------------------------------------------------|

E|-------------------------------------------------------------------------------------------15b
B|-15^14^12-15^14^12-15^14^12-`15^14^12-12---17b-15-17b~~~-15^14^12-------12---------17b-17b---|
G|------------------------------------------------------------------14^12---14-12-\------------|
D|---------------------------------------------------------------------------------------------|
A|---------------------------------------------------------------------------------------------|
E|---------------------------------------------------------------------------------------------|

E|-15-16-16-15-16--16~~~\15-17^15-17-15b~~~~-12-15^14^12----/19-19b-19b-19b---21b-21-19-17-\---|
B|-------------------------------------------------------\-------------------------------------|
G|---------------------------------------------------------------------------------------------|
D|---------------------------------------------------------------------------------------------|
A|---------------------------------------------------------------------------------------------|
E|---------------------------------------------------------------------------------------------|
                                                                                      end solo 1
E|--17-15-12-15-12--------------12----12~~~12b~~~12~~~~-12-------------------------------------|
B|-----------------15-14-12--------15----------------------15^12----12-------------------------|
G|--------------------------/------------------------------------14---14-12b-9~~~~~--/7--------|
D|---------------------------------------------------------------------------------------9~~~~\|
A|---------------------------------------------------------------------------------------------|
E|---------------------------------------------------------------------------------------------|

second solo

E|---------------------------------------------------------------------------------------------|
B|---------------------------------------------------------------------------------------------|
G|-----(4)-------------------------------------------------------------------------------------|
D|-----(4)feed back------------------------------------------5--5------------------------------|
A|-----------------------------------------------------------------7~~~~-0-1-2-----------------|
E|----------------------------3--0-------------------------------------------------------------|
.....jack jack jack......               "she shore was good"                   "come on Angus"
                                                                     trill
E|---------------------------------------------------------------------------------------------|
B|-12~~~~-12\--12^13^12~~~~--------12--11--12-11-12-11-12-11-12~~~~~(12^15)>>>>>>>(12^14)>>>>>>|
G|---------------------------------------------------------------------------------------------|
D|---------------------------------------------------------------------------------------------|
A|---------------------------------------------------------------------------------------------|
E|--------------------------(12)---------------------------------------------------------------|

E|---------------------------------------------------------------------------------------------|
B|--12\--14-14-------------------12-15-12---10-11-12--12b-12b-12b-12b-12b-12b-12b-r--11^10-----|
G|--12\--14-14--12~~~\-----12-14-----------------------------------------------------------\---|
D|---------------------------------------------------------------------------------------------|
A|---------------------------------------------------------------------------------------------|
E|---------------------------------------------------------------------------------------------|

E|-----21b--21-19-17-19-17-15-----------15-12~~~~15b--15-15-15b~~~-12-15^12~~~~~~~~~~~~~~~~~~~~|
B|--17-------------------------15^12-----------------------------------------------------------|
G|-----------------------------------14--------------------------------------------------------|
D|---------------------------------------------------------------------------------------------|
A|---------------------------------------------------------------------------------------------|
E|---------------------------------------------------------------------------------------------|

E|-\-------------------------------------------------------------------------------------------|
B|------12---12-----------12b-----12-12b---12-12b-12-12-12-12b--0-0-0-0-0-0-0-0-0-0------------|
G|------12---12-14-14-----12b-14b-12-12b---12-12b-12-12-12-12b---------------------/4-4^2^0----|
D|--------------14-14---------14b--------------->>>>>>>>>>>>>>---------------------------------|
A|---------------------------------------------------------------------------------------------|
E|---------------------------------------------------------------------------------------------|

E|-----------------------------------------------------19b-19b-19b\-/12-16-12------------------|
B|----------------------------------0--------------------------------12-15-12-14--------------12
G|-4^2^0--4^2^0-4^2^0-4^2^0-4^2^0---0-----------------------------------------14-14-12----12-12|
D|-------------------------------------------------------------------------------------14------|
A|---------------------------------------------------------------------------------------------|
E|--------------------------------------1-/-19-\~~~~-------------------------------------------|

E|---------------------------------------------------------------------------------------------|
B|-12-10--------15-15-15-15-15-15-15--16--------------------12-15-12-12-15-12-12-15-12-12-15-12|
G|-12-10-12-14--14-14-14-14-14-14-14--16-16-16-16-16-16-16-------------------------------------|
D|-------12-14------------------------16-16-16-16-16-16-16-------------------------------------|
A|---------------------------------------------------------------------------------------------|
E|---------------------------------------------------------------------------------------------|

E|--------------------------------------12--12b-12b-12b-12b-12b--12----------------------------|
B|-12-15-15-12-15-15-12--15b--15-12---------------------------------15-12----12-14-12~~--------|
G|----------------------------------14------------------------------------14-------12~~-14-15-16
D|--------------------------------------------------------------------------------------14-15-16
A|---------------------------------------------------------------------------------------------|
E|---------------------------------------------------------------------------------------------|

BACK TO CHORUS

ENDING/OUTRO                trill   
E|------4-------3-------2-------------|----------------|-----------------||
B|--------0-------0-------0-----------|----------------|--(0-0-0-0-0-)---||
G|----4-----4-3-----3-2-----(2^0)-----|----------------|-----------------||
D|------------------------------------|-3--------------|--2--free-time---||
A|------------------------------------|-3-free-time----|--2--------------||
E|------------------------------------|-1--------------|--0--------------||
________________________________________________________________________________________________
comments
print report bad tab
1 comment total.
0 reply
Gimme a Bullet wrote on February 15 2008, 05:02 pm

Its "see if you can recgognise this one" Good tab btw

I want to post or [tab]
guest
You may want to rate the tab now too:
select rating
Please do not post tabs as comments. Select "correction" instead!