Oops, an error
Loading. Please wait.

This House Is On Fire Bass Tab

970 views 1 this week
1 commentread comment
1 2 3 4 5
please rate
add to favorites
launch autoscroll
font size
0
reset
guitar tuner
Tab Pro tools
  • play this tab
  • loop segment
  • change instrument
  • show fretboard
  • metronome
×
Best way to learn
"This House Is On Fire"
Autoscroll
slow
fast
+/-
esc
set tempo
stop
Contributor
AC/DC-This House Is On Fire
Flick Of The Switch (1983)
Transcribed by: playinbass1432
Email: playinbass1432@hotmail.com 

Standard Tuning

Intro: (0:11) 

   G 
G|-----------------|-----------------|-----------------|-----------------|
D|-----------------|-----------------|-----------------|-----------------|
A|-----------------|-----------------|-----------------|-----------------|
E|-3-3-3-3-3-3-3-3-|-3-3-3-3-3-3-3-3-|-3-3-3-3-3-3-3-3-|-3-3-3-3-3-3-3-3-|

   G 
G|-----------------|-----------------|-----------------|-----------------|
D|-----------------|-----------------|-----------------|-----------------|
A|-----------------|-----------------|-----------------|-----------------|
E|-3-3-3-3-3-3-3-3-|-3-3-3-3-3-3-3-3-|-3-3-3-3-3-3-3-3-|-3-3-3-3-3-3-1-2-|

Verse 1: 

   G 
G|-----------------|-----------------|-----------------|-----------------|
D|-----------------|-----------------|-----------------|-----------------|
A|-----------------|-----------------|-----------------|-----------------|
E|-3-3-3-3-3-3-3-3-|-3-3-3-3-3-3-3-3-|-3-3-3-3-3-3-3-3-|-3-3-3-3-3-3-3-3-|

   G 
G|-----------------|-----------------|-----------------|-----------------|
D|-----------------|-----------------|-----------------|-----------2h3p2-|
A|-----------------|-----------------|-----------------|-----------------|
E|-3-3-3-3-3-3-3-3-|-3-3-3-3-3-3-3-3-|-3-3-3-3-3-3-3-3-|-3-3-3-3-3-------|

Pre Chorus 1: 

   D                                     F               A#  F   A#   F 
G|-----------------|-----------------|-----------------|-----------------|
D|-----------------|-----------------|-----------------|-----------------|
A|-5-5-5-5-5-5-5-4h|5-5-5-4h5----3-1-|-----------------|-1-------1-------|
E|-----------------|-----------------|-3-1-1-1-1-1-1-1-|-----1-1-----1-1-|

Chorus 1:

   G     F           A#  C             G      F           A#  C
G|-----------------|-----------------|-----------------|-----------------|
D|-----------------|-----------------|-----------------|-----------------|
A|-----------------|-1-1-3-3---------|-----------------|-1-1-3-3---------|
E|-3---3-1-3-3-----|-----------------|-3---3-1-3-3-----|-----------------|

   G     F           A#  C             G      F           A#  C
G|-----------------|-----------------|-----------------|-----------------|
D|-----------------|-----------------|-----------------|-----------------|
A|-----------------|-1-1-3-3---------|-----------------|-1-1-3-3---------|
E|-3---3-1-3-3-----|-----------------|-3---3-1-3-3-----|-----------------|

Pre Verse 2: 

   G 
G|-----------------|-----------------|-----------------|-----------------|
D|-----------------|-----------------|-----------------|-----------------|
A|-----------------|-----------------|-----------------|-----------------|
E|-3-3-3-3-3-3-3-3-|-3-3-3-3-3-3-3-3-|-3-3-3-3-3-3-3-3-|-3-3-3-3-3-0-1-2-|

Verse 2: 

   G 
G|-----------------|-----------------|-----------------|-----------------|
D|-----------------|-----------------|-----------------|-----------------|
A|-----------------|-----------------|-----------------|-----------------|
E|-3-3-3-3-3-3-3-3-|-3-3-3-3-3-3-3-3-|-3-3-3-3-3-3-3-3-|-3-3-3-3-3-3-3-3-|

   G 
G|-----------------|-----------------|-----------------|-----------------|
D|-----------------|-----------------|-----------------|-----------------|
A|-----------------|-----------------|-----------------|---1-3-3-1-3-----|
E|-3-3-3-3-3-3-3-3-|-3-3-3-3-3-3-3-3-|-3-3-3-3-3-3-3-3-|-3---------------|

Pre Chorus 2:

   D                                   F                 A#  F  A#  
G|-----------------|-----------------|-----------------|-----------------|
D|-----------------|-----------------|-----------------|-----------------|
A|-5-5-5-5-5-5-5-4h|5---3---2--------|-----------------|-1-------1-------|
E|-----------------|-----------5-5-3-|-1-1-1-1-1-1-1-1-|-----1-1-----1-1-|

Chorus 2:

   G      F          A#  C             G     F            A#  C
G|-----------------|-----------------|-----------------|-----------------|
D|-----------------|-------------2-3-|-----------------|-----------------|
A|-----------------|-1-1-3-3---------|-----------------|-1-1-3-3---------|
E|-3---3-1-3-3-----|-----------------|-3---3-1-3-3-----|-----------------|

   G     F           A#  C             G      F           A#  C
G|-----------------|-----------------|-----------------|-----------------|
D|-----------------|-----------------|-----------------|-----------------|
A|-----------------|-1-1-3-3---------|-----------------|-1-1-3-3-------7-|
E|-3---3-1-3-3-----|-----------------|-3---3-1-3-3-----|-----------------|

Bridge: 

   F                                                     D   C A#    G F
G|-----------------|-----------------|-----------------|-----------------|
D|-----------------|-----------------|-----------------|-----------------|
A|-8---8-8-8-8-8-8-|-8-8-8-8-8-8-8-7h|-8-8-8-8-8-8-8-4h|-5---3-----------|
E|-----------------|-----------------|-----------------|-------6-5---3-1-|

Guitar Solo:

   G                 A#       C          G               A#      C
G|-----------------|-----------------|-----------------|-----------------|
D|-----------------|-----------------|-----------------|-----------------|
A|-----------------|-1-------3-------|-----------------|-1-------3-------|
E|-3-3-3-3-3-3-3-3-|-----------------|-3-3-3-3-3-3-3-3-|-----------------|

   G                 A#      C         G                 F        E       
G|-----------------|-----------------|-----------------|-----------------|
D|-----------------|-----------------|-----------------|-3--------2------|
A|-----------------|-1-------3-------|-----------------|-----------------|
E|-3-3-3-3-3-3-3-3-|-----------------|-3-3-3-3-3-3-3-3-|-----------------|

   D                                   F                 A#  F   A#  F
G|-----------------|-----------------|-----------------|-----------------|
D|-----------------|-----------------|-----------------|-8-------8-------|
A|-5-5-5-5-5-5-5-5-|-5-5-5-5-5-5-5-7-|-8-8-8-8-8-8-8-8-|-----8-8-----8-8-|
E|-----------------|-----------------|-----------------|-----------------|

Chorus 3:
   G     F           A#  C             G      F           A#  C
G|-----------------|-----------------|-----------------|-----------------|
D|-----------------|-----------------|-----------------|-----------------|
A|-----------------|-1-1-3-3---------|-----------------|-1-1-3-3---------|
E|-3---3-1-3-3-----|-------------0-1-|-3---3-1-3-3-----|-----------------|

   G                  A#  C            G                 A#    
G|-----------------|-----------------|-----------------|-----------------|
D|-----------------|-----------------|-----------------|-------2-2-3-3-4-|
A|-----------------|-1-1-3-3---------|-----------------|-1-1-3-----------|
E|-3---3-1-3-3-----|-------------0-1-|-3---3-1-3-3-----|-----------------|


G|-----------3b----|-----------------|
D|-5---5-3-----5-5-|-5-5-5-5-5-5-5-5-|
A|---------5-------|-----------------|
E|-----------------|-----------------|

   G                  A#  C            G                 A#  C
G|-----------------|-----------------|-----------------|-----------------|
D|-5---5--3-5-5----|-----------------|-5---5-3-5-5-----|-----------------|
A|-----------------|-1-1-3-3---------|-----------------|-1-1-3-3---------|
E|-----------------|-----------------|-----------------|-----------------|

Half Speed:

   G                  A#  C                              F
G|-----------------|-----------------|-----------------|-----------------|
D|-----------------|-----------------|-----------------|-----------------|
A|-----------------|-1-1-3-3---------|-----------------|-----------------|
E|-3---3-1-3-3-----|-----------------|-----------------|-1---------------|

Free Time: 

  |------------------------------16th Notes-----------------------------|
   G
G|-----------------|-----------------|-----------------|-----------------|
D|-----------------|-----------------|-----------------|-----------------|
A|-----------------|-----------------|-----------------|-----------------|
E|-3-3-3-3-3-3-3-3-|-3-3-3-3-3-3-3-3-|-3-3-3-3-3-3-3-3-|-3-3-3-3-3-3-3-3-|

G|-----------------|-----------------|
D|-----------------|-----------------|
A|-----------------|-----------------|
E|-----------------|-----------------|
comments
We did not receive enough feedback on this tab! Please rate:
print report bad tab
1 2 3 4 5
1 comment total.
0 reply
aig91 wrote on February 27 2008, 11:10 am

Great tab man!

I want to post or [tab]
guest
You may want to rate the tab now too:
select rating
Please do not post tabs as comments. Select "correction" instead!