Oops, an error
Loading. Please wait.

Thunderstruck Tab

version 2
version 2
2,585,967 views 4,848 this week
214 commentsread comments
1 2 3 4 5
excellent!
x 656
add to favorites
launch autoscroll
font size
0
reset
how to read this tab
guitar tuner
Tab Pro tools
  • play this tab
  • loop segment
  • change instrument
  • show fretboard
  • metronome
×
Best way to learn
"Thunderstruck"
Autoscroll
slow
fast
+/-
esc
set tempo
stop
Contributor
[Intro Riff1]

Guitar 1
e|------------------------------------|--------------------------------|
B|--0h4p0h7p0h4p0h7p0h4p0h7p0h4p0h7p0h|4p0h7p0h4p0h7p0h4p0h7p0h4p0h7p0h|
G|------------------------------------|--------------------------------|
D|------------------------------------|--------------------------------|
A|------------------------------------|--------------------------------|
E|------------------------------------|--------------------------------|
 
e|----------------------------------|--------------------------------|
B|--5p0h8p0h5p0h8p0h5p0h8p0h5p0h8p0h|5p0h8p0h5p0h8p0h5p0h8p0h5p0h8p0h|
G|----------------------------------|--------------------------------|       x2
D|----------------------------------|--------------------------------|
A|----------------------------------|--------------------------------|
E|----------------------------------|--------------------------------|


[Intro Riff 2]

Guitar 1
e|-------------------------------------|--------------------------------|
B|--12p0h10p0h9p0h10p0h9p0h7p0h9p0h5p0h|7p0h4p0h5p0h4p0h5p0h4p0h5p0h4p0h|
G|-------------------------------------|--------------------------------|  x10 
D|-------------------------------------|--------------------------------|
A|-------------------------------------|--------------------------------|
E|-------------------------------------|--------------------------------|


(2nd guitar starts)

Guitar 1
e|-------------------------------------|--------------------------------|
B|--12p0h10p0h9p0h10p0h9p0h7p0h9p0h5p0h|7p0h4p0h5p0h4p0h5p0h4p0h5p0h4p0h|
G|-------------------------------------|--------------------------------|  x4
D|-------------------------------------|--------------------------------|
A|-------------------------------------|--------------------------------|
E|-------------------------------------|--------------------------------|

Guitar 2
PM-------------------------------------------------------------|
e|--------------------------------|-------------------------------|
B|--------------------------------|-------------------------------|
G|----4-----4-----4---4-----4-----|---4-----4-----4---4-----4-----| x4
D|----4-----4-----4---4-----4-----|---4-----4-----4---4-----4-----|
A|--2---2-------2-------2-------2-|-2---2-------2-------2-------2-|
E|--------------------------------|-------------------------------|


[Verse 1]

Guitar 1
e|-------------------------------------|--------------------------------|
B|--12p0h10p0h9p0h10p0h9p0h7p0h9p0h5p0h|7p0h4p0h5p0h4p0h5p0h4p0h5p0h4p0h|
G|-------------------------------------|--------------------------------|  x8
D|-------------------------------------|--------------------------------|
A|-------------------------------------|--------------------------------|
E|-------------------------------------|--------------------------------|

Guitar 2
  PM-------------------------------------------------------------|
e|--------------------------------|-------------------------------|
B|--------------------------------|-------------------------------|
G|----4-----4-----4---4-----4-----|---4-----4-----4---4-----4-----| x8
D|----4-----4-----4---4-----4-----|---4-----4-----4---4-----4-----|
A|--2---2-------2-------2-------2-|-2---2-------2-------2-------2-|
E|--------------------------------|-------------------------------|


[Prechorus/chorus] 

Guitar 1
e|-------------------------------------|--------------------------------|
B|--12p0h10p0h9p0h10p0h9p0h7p0h9p0h5p0h|7p0h4p0h5p0h4p0h5p0h4p0h5p0h4p0h|
G|-------------------------------------|--------------------------------|  x4
D|-------------------------------------|--------------------------------|
A|-------------------------------------|--------------------------------|
E|-------------------------------------|--------------------------------|

Guitar 2
e|-------------------|------------------------|
B|-------------------|------------------------|
G|-------------------|------------------------| x4
D|-4-----------2-----|---2---2----------------|
A|-2-----------0-2---|---0---0---2------------|
E|---------------0---|-----------0------------|


[Fill]

Guitar 1
e|-------------------------------------|--------------------------------|
B|--12p0h10p0h9p0h10p0h9p0h7p0h9p0h5p0h|7p0h4p0h5p0h4p0h5p0h4p0h5p0h4p0h|
G|-------------------------------------|--------------------------------| 
D|-------------------------------------|--------------------------------|
A|-------------------------------------|--------------------------------|
E|-------------------------------------|--------------------------------|

Guitar 2
 PM-------------------------------------------------------------|
e|--------------------------------|-------------------------------|
B|--------------------------------|-------------------------------|
G|----4-----4-----4---4-----4-----|---4-----4-----4---4-----4-----| 
D|----4-----4-----4---4-----4-----|---4-----4-----4---4-----4-----|
A|--2---2-------2-------2-------2-|-2---2-------2-------2-------2-|
E|--------------------------------|-------------------------------|


[Instrumental]

Guitar 1
e|-------------------------------------|--------------------------------|
B|--12p0h10p0h9p0h10p0h9p0h7p0h9p0h5p0h|7p0h4p0h5p0h4p0h5p0h4p0h5p0h4p0h|
G|-------------------------------------|--------------------------------| 
D|-------------------------------------|--------------------------------|
A|-------------------------------------|--------------------------------|
E|-------------------------------------|--------------------------------|

Guitar 2
 PM-------------------------------------------------------------|
e|--------------------------------|-------------------------------|
B|--------------------------------|-------------------------------|
G|----4-----4-----4---4-----4-----|---4-----4-----4---4-----4-----| 
D|----4-----4-----4---4-----4-----|---4-----4-----4---4-----4-----|
A|--2---2-------2-------2-------2-|-2---2-------2-------2-------2-|
E|--------------------------------|-------------------------------|


[Verse 2]

Guitar 1
e|-------------------------------------|--------------------------------|
B|--12p0h10p0h9p0h10p0h9p0h7p0h9p0h5p0h|7p0h4p0h5p0h4p0h5p0h4p0h5p0h4p0h|
G|-------------------------------------|--------------------------------| 
D|-------------------------------------|--------------------------------| x8
A|-------------------------------------|--------------------------------|
E|-------------------------------------|--------------------------------|

Guitar 2
PM-------------------------------------------------------------|
e|--------------------------------|-------------------------------|
B|--------------------------------|-------------------------------|
G|----4-----4-----4---4-----4-----|---4-----4-----4---4-----4-----| x8 
D|----4-----4-----4---4-----4-----|---4-----4-----4---4-----4-----|
A|--2---2-------2-------2-------2-|-2---2-------2-------2-------2-|
E|--------------------------------|-------------------------------|


[Bridge]

e|------------------|
B|------------------|
G|-4------2---------|
D|-4------2------2--|
A|-2------0------2--|
E|---------------0--|

e|-----------------------|
B|-----------------------|
G|--2-4---2--------------| x3
D|--2-4---2---2----------|
A|--0-2---0---2----------|
E|------------0----------|


[Chorus]

e|--------------------|------------------------|
B|--------------------|------------------------|
G|--------------------|------------------------|
D|-4---2--------------|-2----------------------| x4
A|-2---0--------------|-0-------2--------------|
E|---------------2-4--|---------0--------------|


[Instrumental]

Guitar 1
e|-------------------------------------|--------------------------------|
B|--12p0h10p0h9p0h10p0h9p0h7p0h9p0h5p0h|7p0h4p0h5p0h4p0h5p0h4p0h5p0h4p0h|
G|-------------------------------------|--------------------------------| 
D|-------------------------------------|--------------------------------| x2
A|-------------------------------------|--------------------------------|
E|-------------------------------------|--------------------------------|

Guitar 2
e|-------------------|
B|-------------------|
G|-------------------|
D|------------4------| x2
A|------------2------|
E|-------------------|


[Interlude]

Guitar 1
e|-------------------------------------|--------------------------------|
B|--12p0h10p0h9p0h10p0h9p0h7p0h9p0h5p0h|7p0h4p0h5p0h4p0h5p0h4p0h5p0h4p0h|
G|-------------------------------------|--------------------------------| 
D|-------------------------------------|--------------------------------| x2
A|-------------------------------------|--------------------------------|
E|-------------------------------------|--------------------------------|

Guitar 2
e|-------------------|
B|-------------------|
G|-------------------|
D|-4-2--4------------| x2
A|------2------------|
E|-------------------|


[Solo]

e|-------------------|------------------------|--------------------------|
B|-------------------|-9--9-------------------|-10---------9-------------|
G|-------------------|-9--9-------------------|-9----------9-----9b11----|
D|-------------x\----|-9--9------9------------|-11---------9-------------|
A|-------------x\----|------------------------|--------------------------|
E|-------------------|------------------------|--------------------------|

e|-------------------|------------------------|--------------------------|
B|-------------------|------------------------|--------------------------|
G|-------------------|------------------------|--------------------------|
D|-------------------|-----------4----------2-|-2------------------------|
A|---------------x/--|-2---------2----------0-|-0----------2-------------|
E|---------------x/--|-0----------------0-2---|------------0-------------|

e|-7-------------------------------|-------------------------------------|
B|---10-7---7----------------------|-------------------------------------|
G|--------9---7--------------------|-------------------------------------|
D|--------------9--------\------7--|-7--------------9-----------9b11-----|
A|-------------------------/9------|-------------------------------------|
E|---------------------------------|-------------------------------------|

e|---------------------------------------|------------------------------17b19-|
B|---------------------------------------|------------------------------------|
G|------7-9---11p9p7--11p9p7----11p9p7---|-7b9-br7----------------------------|
D|----9----------------------9---------9-|----------------9-------------------|
A|---------------------------------------|------------------------------------|
E|---------------------------------------|-----------------------0--0---------|

e|------17-14---------------------17-14------------|
B|-----------17b19----17-15-17b19------17-18-17-15-|
G|-------------------------------------------------|
D|-------------------------------------------------|
A|-------------------------------------------------|
E|-------------------------------------------------|

e|------------------------------------------|
B|----15b17-15b17-15b17----------------\----|
G|-16-----------------------------------\---|
D|------------------------------------------|
A|------------------------------------------|
E|------------------------------------------|

e|------------------|-------------------------|----------------------|
B|------------------|-------------------------|----------------7-----|
G|--------------7---|-7----9-7-9b11----9p7----|----------------7-----|
D|--4---2-----9---9-|----------------------9--|--4------2----9-----9-|
A|--2---0-----------|-------------------------|--2------0------------|
E|------------------|-------------------------|----------------------|

e|--------------------------------|-----------|----------------|
B|-7----9---7-9b10-------9p7------|-----------|----------------|
G|-7----9---7-9b--11-----9p7------|-----------|----------------|
D|----------------------------9---|-----------|------------x\--|
A|--------------------------------|-----------|------------x\\-|
E|--------------------------------|-----------|--------------\-|


[Instrumental]

Guitar 1
e|-------------------------------------|--------------------------------|
B|--12p0h10p0h9p0h10p0h9p0h7p0h9p0h5p0h|7p0h4p0h5p0h4p0h5p0h4p0h5p0h4p0h|
G|-------------------------------------|--------------------------------| 
D|-------------------------------------|--------------------------------| x4
A|-------------------------------------|--------------------------------|
E|-------------------------------------|--------------------------------|

Guitar 2
e|----------------------|
B|----------------------|
G|----------------------|
D|--4---2---------------| x4
A|--2---0---------------|
E|----------------------|   

 
[Fill]

Guitar 1
e|-------------------------------------|--------------------------------|
B|--12p0h10p0h9p0h10p0h9p0h7p0h9p0h5p0h|7p0h4p0h5p0h4p0h5p0h4p0h5p0h4p0h|
G|-------------------------------------|--------------------------------|  
D|-------------------------------------|--------------------------------|
A|-------------------------------------|--------------------------------|
E|-------------------------------------|--------------------------------|


[Chorus]
e|--------------------|------------------------|
B|--------------------|------------------------|
G|--------------------|------------------------|
D|-4---2--------------|-2----------------------| x4
A|-2---0--------------|-0-------2--------------|
E|---------------2-4--|---------0--------------|


[Bridge]

Guitar 1
e|-------------------------------------|--------------------------------|
B|--12p0h10p0h9p0h10p0h9p0h7p0h9p0h5p0h|7p0h4p0h5p0h4p0h5p0h4p0h5p0h4p0h|
G|-------------------------------------|--------------------------------|  
D|-------------------------------------|--------------------------------| x4
A|-------------------------------------|--------------------------------|
E|-------------------------------------|--------------------------------|

Guitar2
e|----------------------|
B|----------------------|
G|----------------------|   
D|--4-----------2-------| x4
A|--2-----------2-------|
E|----------2-4-0-------|  


[Chorus]

e|--------------------|------------------------|
B|--------------------|------------------------|
G|--------------------|------------------------|
D|-4---2--------------|-2----------------------| x4
A|-2---0--------------|-0-------2--------------|
E|---------------2-4--|---------0--------------|


[Outro]

Guitar 1
e|-------------------------------------|--------------------------------|
B|--12p0h10p0h9p0h10p0h9p0h7p0h9p0h5p0h|7p0h4p0h5p0h4p0h5p0h4p0h5p0h4p0h| 
G|-------------------------------------|--------------------------------|  
D|-------------------------------------|--------------------------------| x2
A|-------------------------------------|--------------------------------|
E|-------------------------------------|--------------------------------|

Guitar 2
e|---|
B|---|
G|---|
D|-4-| x2
A|-2-|
E|---|


[End]

e|---|
B|---|
G|---|
D|-4-| x2
A|-2-|
E|---|

***********************************

| /   Slide up
| \   Slide down
| h   Hummer-on
| p   Pull-off
| ~   Vibrato
| x   Dead note
| b   Bend
| br  Bend release

***********************************




comments
print report bad tab
214 comments total. Showing first comments.
+14 reply
offtherails wrote on July 19 2003, 12:00 am

sweet deal

+9 reply
Greenery wrote on July 19 2003, 12:00 am

just as long as everyone knows that the intro is not picked at all then this is great

+12 reply
Springs wrote on August 31 2003, 12:00 am

Great tab.

I want to post or [tab]
guest
You may want to rate the tab now too:
select rating
Please do not post tabs as comments. Select "correction" instead!