Oops, an error
Loading. Please wait.
We have an official Thunderstruck tab made by UG professional guitarists. Check out the tab »
×
by AC/DC
106,242 views 33 this week
13 commentsread comments
1 2 3 4 5
x 15
add to favorites
×
Save as Personal and add changes to this tab that will be seen only by you. Learn more ›
×
You can save this tab as Personal to edit and correct it or add notes. All changes will be seen only by you. Learn more »
launch autoscroll
font size
0
reset
how to read this tab
guitar tuner
edit
Autoscroll
slow
fast
+/-
esc
set tempo
stop
Author
Unregistered
AC/DC

I hope it sounds good. tell me.. AIM: ozzman3388

/Slide
^Pull up


[Intro]

e|---------|--------------------------------------------------------------------|
B|----0----|-0-7-0-4-0-7-0-4-0-7-0-4-0-7-0-4-0-7-0-4-0-7-0-4-0-7-0-4-0-7-0-----|
G|---------|--------------------------------------------------------------------|
D|---------|--------------------------------------------------------------------|
A|---------|--------------------------------------------------------------------|
E|---------|--------------------------------------------------------------------|

e|------------------------------------------------------------------------------|
B|-5-0-8-0-5-0-8-0-5-0-8-0-5-0-8-0-5-0-8-0-5-0-8-0-5-0-8-0-5-0-8-0--------------|
G|------------------------------------------------------------------------------|
D|------------------------------------------------------------------------------|
A|------------------------------------------------------------------------------|
E|------------------------------------------------------------------------------|


[1st Riff]

e|--------------------------------|---------------------------------------------|
B|-12-10-9-0-10-0-9-0-7-0-9-0-5-0-|-7-0-4-0-5-0-4-0-5-0-4-0-5-0-4-0-------------|
G|--------------------------------|---------------------------------------------|
D|--------------------------------|---------------------------------------------|
A|--------------------------------|---------------------------------------------|
E|--------------------------------|---------------------------------------------|


[Fig.1]

e|-----------------------------------------|------------------------------------|
B|-----------------------------------------|------------------------------------|
G|--4--4-------4-----4------4-----4---4----|--4--4----4----4--4------4----------|
D|--4--4-------4-----4------4-----4---4----|--4--4----4----4--4------4----------|
A|--------2-------2------------2---------2-|-------2-----2--------2------2------|
E|-----------------------------------------|------------------------------------|


   [Fig.2]                     [Fig.3               [Fig.4]
e|------------------------|  1----------------|   1----------------------|
B|------------------------|  2----------------|   2----------------------|
G|------------------------|  3----------------|   3-4--2-----------------|
D|--4---2--------2--2-----|  4---4------------|   4-4--2---2----2--------|
A|--2---0--2-----0--0--2--|  5---2------------|   5-2--0---2----2--------|
E|---------0-----------0--|  6----------------|   6--------0----0--------|


  [Fig.5]...[Chorus]
e|------------------------|
B|------------------------|
G|------2-----------------|
D|-4-2--0-----2-----------|
A|-2-0-----2--0---2-------|
E|---------0------0-------|


  [Riff.1]
e|-----------------|
B|-----------------|
G|--------4--2-----|
D|--------4--2-----|
A|--4--4--------4--|
E|--2--2--------2--|


  [Solo]
e|------------------------------------------------------------------------------|
B|---9--9----------------------------------------7------------------------------|
G|---9--9--9-------------6-------9---------9^-----------------------------------|
D|------------9-------------7----9---9/7----------------------------------------|
A|----------------9--7----------------------------------------------------------|
E|------------------------------------------------------------------------------|


  [Fig.6]
e|--------------------------------7---------------------------------------------|
B|----------------------------------10--7---------------------------------------|
G|-----------------------------------------9--7^--------------------------------|
D|----------4----------2--2-----------------------9--9----7--7^--7--9-----------|
A|--2--2----2----------0--0---2------------------------9----------------0-------|
E|--0--0---------0--2---------0-------------------------------------------------|

e|------------------------------------------------------------------------------|
B|------------------------7-----------------------------------------------------|
G|---9-----7--9-10-9-7-------9-----7--7^-----9---7^-----------------------------|
D|------9----------9------------9---------9--------9---9------------------------|
A|------------------------------------------------------------------------------|
E|------------------------------------------------------------------------------|

e|--17--17--14------------------------14--17--14-----14-------------------------|
B|--------------17^---17--15---17^---------------17-----17^-(17)-15--15^15^15^--|
G|-----------------------------------------------------------------16-----------|
D|------------------------------------------------------------------------------|
A|------------------------------------------------------------------------------|
E|------------------------------------------------------------------------------|


  [Riff]
e|------------------------------------------------------------------------------|
B|------------------------------------------------------7------7--9--7--9^--9-7-|
G|------------7------7--9--7-9^--9--7-------------------7------7--9--7--9^--9-7-|
D|-4--2----9-----9----------------------9---4---2---9-------9-------------------|
A|-2--0-------------------------------------2---0-------------------------------|
E|------------------------------------------------------------------------------|


  [Chorus]
e|---------------------------------------10--12--10---------10^--10--7-9^-9-7---|
B|-----------------------------------12---------------12---12-------------------|
G|------------------------------------------------------------------------------|
D|-4------------4---------------------------------------------------------------|
A|-2-------2----2--------2---2---2----------------------------------------------|
E|----2-4--0--------2-4--0---0---0----------------------------------------------|

e|----14^-----14--13--12-------12---------12^---10---12^-(12)--12^-12--12--12---|
B|------------------------15--------15------------------------------------------|
G|------------------------------------------------------------------------------|
D|------------------------------------------------------------------------------|
A|------------------------------------------------------------------------------|
E|------------------------------------------------------------------------------|

e|-12-12-12-12-12-12-12-12--10^-10------10^--12-12^-10----12-10-12-10-(10)-12^---|
B|----------------------------------12-----------------12------------------------|
G|-------------------------------------------------------------------------------|
D|-------------------------------------------------------------------------------|
A|-------------------------------------------------------------------------------|
E|-------------------------------------------------------------------------------|

e|-12^-10-12^-12^--17-`4-17^-17^-17-14-17^--17-14--17^ 22^--22-22-19------------|
B|-------------------------------------------------------------------22-19------|
G|-------------------------------------------------------------------------21^--|
D|------------------------------------------------------------------------------|
A|------------------------------------------------------------------------------|
E|------------------------------------------------------------------------------|

e|------------------------------------------------------------------------------|
B|------------------------------------------------------------------------------|
G|--21-19----21----19-21^-21^---------------------------------------------------|
D|--------21----21-----------21---4---4---4-------------------------------------|
A|--------------------------------2---2---2-------------------------------------|
E|------------------------------------------------------------------------------|



************************************

| (n)  Ghost note
| /    Slide up  

************************************

            
            
Suggest correction
Creating personal tab
Creating personal tab
You can edit any tab online and save it as your Personal.

You can edit, replace or remove any tab part or add personal notes – all changes will be seen only by you.

Personal tabs can be accessed anytime from any device, even offline.
Learn more »
comments
print report bad tab
13 comments total. Showing first comments.
-1 reply
Springs 10 Aug 30, 2003 08:00 PM

Well frank had it going, till his whole 12-10-9-10-9-7-5-4-5-4 ordeal. You'll find it better when you play that part like this:

0h12p0h10p0h9p0h10p0h9p0h7p0h9p0h5p0h7p0h4p0h5p0h4p0h5p0h4p0

0 reply
LastRockShow 191 Apr 19, 2004 08:00 PM

lol angus just uses hammer-ons an pulloffs for the intro. havent yu guys ever seen the music video or them perform it live? Angus has his right hand up in the air the entire time (well, until he does that kicking thing he likes to do)

+1 reply
thunderstruck24 71 May 28, 2004 08:00 PM

True, but in most shows he picks it.

guest
Wanna post a correction for this tab? Suggest correction